0
SECTION
2
HEADER
9
$MEASUREMENT
70
0
0
ENDSEC
0
SECTION
2
TABLES
0
ENDSEC
0
SECTION
2
BLOCKS
0
ENDSEC
0
SECTION
2
ENTITIES
0
LINE
100
AcDbEntity
62
7
8
HANDALSTONE_pc119
100
AcDbLine
10
26.484
20
11.35671
30
0.0
11
26.484
21
0
31
0.0
0
LINE
100
AcDbEntity
62
7
8
HANDALSTONE_pc119
100
AcDbLine
10
26.484
20
11.49995
30
0.0
11
26.484
21
11.35769
31
0.0
0
LINE
100
AcDbEntity
62
7
8
HANDALSTONE_pc119
100
AcDbLine
10
0
20
17.49998
30
0.0
11
53
21
17.49998
31
0.0
0
LINE
100
AcDbEntity
62
7
8
HANDALSTONE_pc119
100
AcDbLine
10
3.3901
20
9.44199
30
0.0
11
26.484
21
9.44199
31
0.0
0
LINE
100
AcDbEntity
62
7
8
HANDALSTONE_pc119
100
AcDbLine
10
26.516
20
9.78036
30
0.0
11
49.8923
21
9.78036
31
0.0
0
LINE
100
AcDbEntity
62
7
8
HANDALSTONE_pc119
100
AcDbLine
10
26.516
20
11.35672
30
0.0
11
48.597
21
11.35672
31
0.0
0
LINE
100
AcDbEntity
62
7
8
HANDALSTONE_pc119
100
AcDbLine
10
5.8667
20
11.49995
30
0.0
11
47.1333
21
11.49995
31
0.0
0
LINE
100
AcDbEntity
62
7
8
HANDALSTONE_pc119
100
AcDbLine
10
0.0772
20
14.49998
30
0.0
11
52.9228
21
14.49998
31
0.0
0
LINE
100
AcDbEntity
62
7
8
HANDALSTONE_pc119
100
AcDbLine
10
4.3346
20
0.276
30
0.0
11
26.484
21
0.276
31
0.0
0
LINE
100
AcDbEntity
62
7
8
HANDALSTONE_pc119
100
AcDbLine
10
4.7788
20
7.57111
30
0.0
11
26.484
21
7.57111
31
0.0
0
LINE
100
AcDbEntity
62
7
8
HANDALSTONE_pc119
100
AcDbLine
10
26.516
20
7.00588
30
0.0
11
47.8237
21
7.00588
31
0.0
0
LINE
100
AcDbEntity
62
7
8
HANDALSTONE_pc119
100
AcDbLine
10
3.1077
20
9.78036
30
0.0
11
26.484
21
9.78036
31
0.0
0
LINE
100
AcDbEntity
62
7
8
HANDALSTONE_pc119
100
AcDbLine
10
5.1763
20
7.00588
30
0.0
11
26.484
21
7.00588
31
0.0
0
LINE
100
AcDbEntity
62
7
8
HANDALSTONE_pc119
100
AcDbLine
10
4.3202
20
1.7924
30
0.0
11
26.484
21
1.7924
31
0.0
0
LINE
100
AcDbEntity
62
7
8
HANDALSTONE_pc119
100
AcDbLine
10
4.3815
20
2.1057
30
0.0
11
26.484
21
2.1057
31
0.0
0
LINE
100
AcDbEntity
62
7
8
HANDALSTONE_pc119
100
AcDbLine
10
5.1763
20
5.89925
30
0.0
11
26.484
21
5.89925
31
0.0
0
LINE
100
AcDbEntity
62
7
8
HANDALSTONE_pc119
100
AcDbLine
10
3.4468
20
9.29955
30
0.0
11
26.484
21
9.29955
31
0.0
0
LINE
100
AcDbEntity
62
7
8
HANDALSTONE_pc119
100
AcDbLine
10
4.403
20
11.35672
30
0.0
11
26.484
21
11.35672
31
0.0
0
LINE
100
AcDbEntity
62
7
8
HANDALSTONE_pc119
100
AcDbLine
10
26.516
20
5.89925
30
0.0
11
47.8237
21
5.89925
31
0.0
0
LINE
100
AcDbEntity
62
7
8
HANDALSTONE_pc119
100
AcDbLine
10
26.516
20
7.57111
30
0.0
11
48.2212
21
7.57111
31
0.0
0
LINE
100
AcDbEntity
62
7
8
HANDALSTONE_pc119
100
AcDbLine
10
26.516
20
0.276
30
0.0
11
48.6654
21
0.276
31
0.0
0
LINE
100
AcDbEntity
62
7
8
HANDALSTONE_pc119
100
AcDbLine
10
26.516
20
1.7924
30
0.0
11
48.6798
21
1.7924
31
0.0
0
LINE
100
AcDbEntity
62
7
8
HANDALSTONE_pc119
100
AcDbLine
10
26.516
20
2.1057
30
0.0
11
48.6185
21
2.1057
31
0.0
0
LINE
100
AcDbEntity
62
7
8
HANDALSTONE_pc119
100
AcDbLine
10
26.516
20
9.44199
30
0.0
11
49.6099
21
9.44199
31
0.0
0
LINE
100
AcDbEntity
62
7
8
HANDALSTONE_pc119
100
AcDbLine
10
26.516
20
9.29955
30
0.0
11
49.5532
21
9.29955
31
0.0
0
LINE
100
AcDbEntity
62
7
8
HANDALSTONE_pc119
100
AcDbLine
10
2.4975
20
11.65432
30
0.0
11
2.4994
21
11.57749
31
0.0
0
LINE
100
AcDbEntity
62
7
8
HANDALSTONE_pc119
100
AcDbLine
10
2.4994
20
11.57739
30
0.0
11
2.5
21
11.49998
31
0.0
0
LINE
100
AcDbEntity
62
7
8
HANDALSTONE_pc119
100
AcDbLine
10
2.5
20
11.49998
30
0.0
11
5.8666
21
11.49998
31
0.0
0
LINE
100
AcDbEntity
62
7
8
HANDALSTONE_pc119
100
AcDbLine
10
5.8666
20
11.49998
30
0.0
11
5.8666
21
11.49995
31
0.0
0
LINE
100
AcDbEntity
62
7
8
HANDALSTONE_pc119
100
AcDbLine
10
5.8666
20
11.49995
30
0.0
11
5.8346
21
11.49995
31
0.0
0
LINE
100
AcDbEntity
62
7
8
HANDALSTONE_pc119
100
AcDbLine
10
5.8346
20
11.49995
30
0.0
11
5.8346
21
11.49998
31
0.0
0
LINE
100
AcDbEntity
62
7
8
HANDALSTONE_pc119
100
AcDbLine
10
5.8346
20
11.49998
30
0.0
11
4.75
21
11.49995
31
0.0
0
LINE
100
AcDbEntity
62
7
8
HANDALSTONE_pc119
100
AcDbLine
10
4.75
20
11.49995
30
0.0
11
4.7385
21
11.48622
31
0.0
0
LINE
100
AcDbEntity
62
7
8
HANDALSTONE_pc119
100
AcDbLine
10
4.7385
20
11.48622
30
0.0
11
4.7263
21
11.47337
31
0.0
0
LINE
100
AcDbEntity
62
7
8
HANDALSTONE_pc119
100
AcDbLine
10
4.7263
20
11.47337
30
0.0
11
4.7136
21
11.46138
31
0.0
0
LINE
100
AcDbEntity
62
7
8
HANDALSTONE_pc119
100
AcDbLine
10
4.7136
20
11.46138
30
0.0
11
4.7003
21
11.45021
31
0.0
0
LINE
100
AcDbEntity
62
7
8
HANDALSTONE_pc119
100
AcDbLine
10
4.7003
20
11.45021
30
0.0
11
4.6865
21
11.43983
31
0.0
0
LINE
100
AcDbEntity
62
7
8
HANDALSTONE_pc119
100
AcDbLine
10
4.6865
20
11.43983
30
0.0
11
4.6722
21
11.43022
31
0.0
0
LINE
100
AcDbEntity
62
7
8
HANDALSTONE_pc119
100
AcDbLine
10
4.6722
20
11.43022
30
0.0
11
4.6574
21
11.42136
31
0.0
0
LINE
100
AcDbEntity
62
7
8
HANDALSTONE_pc119
100
AcDbLine
10
4.6574
20
11.42136
30
0.0
11
4.6423
21
11.41319
31
0.0
0
LINE
100
AcDbEntity
62
7
8
HANDALSTONE_pc119
100
AcDbLine
10
4.6423
20
11.41319
30
0.0
11
4.6267
21
11.40572
31
0.0
0
LINE
100
AcDbEntity
62
7
8
HANDALSTONE_pc119
100
AcDbLine
10
4.6267
20
11.40572
30
0.0
11
4.6108
21
11.39889
31
0.0
0
LINE
100
AcDbEntity
62
7
8
HANDALSTONE_pc119
100
AcDbLine
10
4.6108
20
11.39889
30
0.0
11
4.578
21
11.3871
31
0.0
0
LINE
100
AcDbEntity
62
7
8
HANDALSTONE_pc119
100
AcDbLine
10
4.578
20
11.3871
30
0.0
11
4.5441
21
11.37758
31
0.0
0
LINE
100
AcDbEntity
62
7
8
HANDALSTONE_pc119
100
AcDbLine
10
4.5441
20
11.37758
30
0.0
11
4.5094
21
11.37012
31
0.0
0
LINE
100
AcDbEntity
62
7
8
HANDALSTONE_pc119
100
AcDbLine
10
4.5094
20
11.37012
30
0.0
11
4.4741
21
11.36446
31
0.0
0
LINE
100
AcDbEntity
62
7
8
HANDALSTONE_pc119
100
AcDbLine
10
4.4741
20
11.36446
30
0.0
11
4.4386
21
11.3604
31
0.0
0
LINE
100
AcDbEntity
62
7
8
HANDALSTONE_pc119
100
AcDbLine
10
4.4386
20
11.3604
30
0.0
11
4.4029
21
11.3577
31
0.0
0
LINE
100
AcDbEntity
62
7
8
HANDALSTONE_pc119
100
AcDbLine
10
4.4029
20
11.3577
30
0.0
11
4.3807
21
11.35672
31
0.0
0
LINE
100
AcDbEntity
62
7
8
HANDALSTONE_pc119
100
AcDbLine
10
4.3807
20
11.35672
30
0.0
11
2.8346
21
11.35672
31
0.0
0
LINE
100
AcDbEntity
62
7
8
HANDALSTONE_pc119
100
AcDbLine
10
2.8346
20
11.35672
30
0.0
11
2.8346
21
9.78036
31
0.0
0
LINE
100
AcDbEntity
62
7
8
HANDALSTONE_pc119
100
AcDbLine
10
2.8346
20
9.78036
30
0.0
11
3.1076
21
9.78036
31
0.0
0
LINE
100
AcDbEntity
62
7
8
HANDALSTONE_pc119
100
AcDbLine
10
3.1076
20
9.78036
30
0.0
11
3.1085
21
9.73637
31
0.0
0
LINE
100
AcDbEntity
62
7
8
HANDALSTONE_pc119
100
AcDbLine
10
3.1085
20
9.73637
30
0.0
11
3.1113
21
9.69589
31
0.0
0
LINE
100
AcDbEntity
62
7
8
HANDALSTONE_pc119
100
AcDbLine
10
3.1113
20
9.69589
30
0.0
11
3.1161
21
9.65881
31
0.0
0
LINE
100
AcDbEntity
62
7
8
HANDALSTONE_pc119
100
AcDbLine
10
3.1161
20
9.65881
30
0.0
11
3.1229
21
9.62505
31
0.0
0
LINE
100
AcDbEntity
62
7
8
HANDALSTONE_pc119
100
AcDbLine
10
3.1229
20
9.62505
30
0.0
11
3.1318
21
9.5945
31
0.0
0
LINE
100
AcDbEntity
62
7
8
HANDALSTONE_pc119
100
AcDbLine
10
3.1318
20
9.5945
30
0.0
11
3.137
21
9.5804
31
0.0
0
LINE
100
AcDbEntity
62
7
8
HANDALSTONE_pc119
100
AcDbLine
10
3.137
20
9.5804
30
0.0
11
3.1429
21
9.56708
31
0.0
0
LINE
100
AcDbEntity
62
7
8
HANDALSTONE_pc119
100
AcDbLine
10
3.1429
20
9.56708
30
0.0
11
3.1493
21
9.55449
31
0.0
0
LINE
100
AcDbEntity
62
7
8
HANDALSTONE_pc119
100
AcDbLine
10
3.1493
20
9.55449
30
0.0
11
3.1562
21
9.54265
31
0.0
0
LINE
100
AcDbEntity
62
7
8
HANDALSTONE_pc119
100
AcDbLine
10
3.1562
20
9.54265
30
0.0
11
3.1637
21
9.53154
31
0.0
0
LINE
100
AcDbEntity
62
7
8
HANDALSTONE_pc119
100
AcDbLine
10
3.1637
20
9.53154
30
0.0
11
3.1719
21
9.52115
31
0.0
0
LINE
100
AcDbEntity
62
7
8
HANDALSTONE_pc119
100
AcDbLine
10
3.1719
20
9.52115
30
0.0
11
3.1806
21
9.51144
31
0.0
0
LINE
100
AcDbEntity
62
7
8
HANDALSTONE_pc119
100
AcDbLine
10
3.1806
20
9.51144
30
0.0
11
3.19
21
9.50244
31
0.0
0
LINE
100
AcDbEntity
62
7
8
HANDALSTONE_pc119
100
AcDbLine
10
3.19
20
9.50244
30
0.0
11
3.1999
21
9.49413
31
0.0
0
LINE
100
AcDbEntity
62
7
8
HANDALSTONE_pc119
100
AcDbLine
10
3.1999
20
9.49413
30
0.0
11
3.2105
21
9.48647
31
0.0
0
LINE
100
AcDbEntity
62
7
8
HANDALSTONE_pc119
100
AcDbLine
10
3.2105
20
9.48647
30
0.0
11
3.2217
21
9.47946
31
0.0
0
LINE
100
AcDbEntity
62
7
8
HANDALSTONE_pc119
100
AcDbLine
10
3.2217
20
9.47946
30
0.0
11
3.2336
21
9.4731
31
0.0
0
LINE
100
AcDbEntity
62
7
8
HANDALSTONE_pc119
100
AcDbLine
10
3.2336
20
9.4731
30
0.0
11
3.2462
21
9.46738
31
0.0
0
LINE
100
AcDbEntity
62
7
8
HANDALSTONE_pc119
100
AcDbLine
10
3.2462
20
9.46738
30
0.0
11
3.2594
21
9.46225
31
0.0
0
LINE
100
AcDbEntity
62
7
8
HANDALSTONE_pc119
100
AcDbLine
10
3.2594
20
9.46225
30
0.0
11
3.2732
21
9.45775
31
0.0
0
LINE
100
AcDbEntity
62
7
8
HANDALSTONE_pc119
100
AcDbLine
10
3.2732
20
9.45775
30
0.0
11
3.2878
21
9.45381
31
0.0
0
LINE
100
AcDbEntity
62
7
8
HANDALSTONE_pc119
100
AcDbLine
10
3.2878
20
9.45381
30
0.0
11
3.319
21
9.44769
31
0.0
0
LINE
100
AcDbEntity
62
7
8
HANDALSTONE_pc119
100
AcDbLine
10
3.319
20
9.44769
30
0.0
11
3.3531
21
9.4438
31
0.0
0
LINE
100
AcDbEntity
62
7
8
HANDALSTONE_pc119
100
AcDbLine
10
3.3531
20
9.4438
30
0.0
11
3.3901
21
9.442
31
0.0
0
LINE
100
AcDbEntity
62
7
8
HANDALSTONE_pc119
100
AcDbLine
10
3.3901
20
9.442
30
0.0
11
3.3896
21
9.29956
31
0.0
0
LINE
100
AcDbEntity
62
7
8
HANDALSTONE_pc119
100
AcDbLine
10
3.3896
20
9.29956
30
0.0
11
3.4467
21
9.29846
31
0.0
0
LINE
100
AcDbEntity
62
7
8
HANDALSTONE_pc119
100
AcDbLine
10
3.4467
20
9.29846
30
0.0
11
3.5004
21
9.29523
31
0.0
0
LINE
100
AcDbEntity
62
7
8
HANDALSTONE_pc119
100
AcDbLine
10
3.5004
20
9.29523
30
0.0
11
3.551
21
9.28992
31
0.0
0
LINE
100
AcDbEntity
62
7
8
HANDALSTONE_pc119
100
AcDbLine
10
3.551
20
9.28992
30
0.0
11
3.5984
21
9.28258
31
0.0
0
LINE
100
AcDbEntity
62
7
8
HANDALSTONE_pc119
100
AcDbLine
10
3.5984
20
9.28258
30
0.0
11
3.6429
21
9.27328
31
0.0
0
LINE
100
AcDbEntity
62
7
8
HANDALSTONE_pc119
100
AcDbLine
10
3.6429
20
9.27328
30
0.0
11
3.6844
21
9.26212
31
0.0
0
LINE
100
AcDbEntity
62
7
8
HANDALSTONE_pc119
100
AcDbLine
10
3.6844
20
9.26212
30
0.0
11
3.7232
21
9.24911
31
0.0
0
LINE
100
AcDbEntity
62
7
8
HANDALSTONE_pc119
100
AcDbLine
10
3.7232
20
9.24911
30
0.0
11
3.7593
21
9.23436
31
0.0
0
LINE
100
AcDbEntity
62
7
8
HANDALSTONE_pc119
100
AcDbLine
10
3.7593
20
9.23436
30
0.0
11
3.7928
21
9.2179
31
0.0
0
LINE
100
AcDbEntity
62
7
8
HANDALSTONE_pc119
100
AcDbLine
10
3.7928
20
9.2179
30
0.0
11
3.8239
21
9.19981
31
0.0
0
LINE
100
AcDbEntity
62
7
8
HANDALSTONE_pc119
100
AcDbLine
10
3.8239
20
9.19981
30
0.0
11
3.8526
21
9.18016
31
0.0
0
LINE
100
AcDbEntity
62
7
8
HANDALSTONE_pc119
100
AcDbLine
10
3.8526
20
9.18016
30
0.0
11
3.8791
21
9.159
31
0.0
0
LINE
100
AcDbEntity
62
7
8
HANDALSTONE_pc119
100
AcDbLine
10
3.8791
20
9.159
30
0.0
11
3.9034
21
9.13638
31
0.0
0
LINE
100
AcDbEntity
62
7
8
HANDALSTONE_pc119
100
AcDbLine
10
3.9034
20
9.13638
30
0.0
11
3.9256
21
9.11241
31
0.0
0
LINE
100
AcDbEntity
62
7
8
HANDALSTONE_pc119
100
AcDbLine
10
3.9256
20
9.11241
30
0.0
11
3.946
21
9.08711
31
0.0
0
LINE
100
AcDbEntity
62
7
8
HANDALSTONE_pc119
100
AcDbLine
10
3.946
20
9.08711
30
0.0
11
3.9645
21
9.06058
31
0.0
0
LINE
100
AcDbEntity
62
7
8
HANDALSTONE_pc119
100
AcDbLine
10
3.9645
20
9.06058
30
0.0
11
3.9813
21
9.03285
31
0.0
0
LINE
100
AcDbEntity
62
7
8
HANDALSTONE_pc119
100
AcDbLine
10
3.9813
20
9.03285
30
0.0
11
3.9964
21
9.004
31
0.0
0
LINE
100
AcDbEntity
62
7
8
HANDALSTONE_pc119
100
AcDbLine
10
3.9964
20
9.004
30
0.0
11
4.0101
21
8.97409
31
0.0
0
LINE
100
AcDbEntity
62
7
8
HANDALSTONE_pc119
100
AcDbLine
10
4.0101
20
8.97409
30
0.0
11
4.0223
21
8.94321
31
0.0
0
LINE
100
AcDbEntity
62
7
8
HANDALSTONE_pc119
100
AcDbLine
10
4.0223
20
8.94321
30
0.0
11
4.0333
21
8.91138
31
0.0
0
LINE
100
AcDbEntity
62
7
8
HANDALSTONE_pc119
100
AcDbLine
10
4.0333
20
8.91138
30
0.0
11
4.043
21
8.87868
31
0.0
0
LINE
100
AcDbEntity
62
7
8
HANDALSTONE_pc119
100
AcDbLine
10
4.043
20
8.87868
30
0.0
11
4.0517
21
8.84518
31
0.0
0
LINE
100
AcDbEntity
62
7
8
HANDALSTONE_pc119
100
AcDbLine
10
4.0517
20
8.84518
30
0.0
11
4.0594
21
8.81096
31
0.0
0
LINE
100
AcDbEntity
62
7
8
HANDALSTONE_pc119
100
AcDbLine
10
4.0594
20
8.81096
30
0.0
11
4.0662
21
8.77605
31
0.0
0
LINE
100
AcDbEntity
62
7
8
HANDALSTONE_pc119
100
AcDbLine
10
4.0662
20
8.77605
30
0.0
11
4.0723
21
8.74054
31
0.0
0
LINE
100
AcDbEntity
62
7
8
HANDALSTONE_pc119
100
AcDbLine
10
4.0723
20
8.74054
30
0.0
11
4.0825
21
8.66794
31
0.0
0
LINE
100
AcDbEntity
62
7
8
HANDALSTONE_pc119
100
AcDbLine
10
4.0825
20
8.66794
30
0.0
11
4.0909
21
8.59366
31
0.0
0
LINE
100
AcDbEntity
62
7
8
HANDALSTONE_pc119
100
AcDbLine
10
4.0909
20
8.59366
30
0.0
11
4.1057
21
8.44215
31
0.0
0
LINE
100
AcDbEntity
62
7
8
HANDALSTONE_pc119
100
AcDbLine
10
4.1057
20
8.44215
30
0.0
11
4.1138
21
8.36594
31
0.0
0
LINE
100
AcDbEntity
62
7
8
HANDALSTONE_pc119
100
AcDbLine
10
4.1138
20
8.36594
30
0.0
11
4.1234
21
8.2901
31
0.0
0
LINE
100
AcDbEntity
62
7
8
HANDALSTONE_pc119
100
AcDbLine
10
4.1234
20
8.2901
30
0.0
11
4.1291
21
8.25249
31
0.0
0
LINE
100
AcDbEntity
62
7
8
HANDALSTONE_pc119
100
AcDbLine
10
4.1291
20
8.25249
30
0.0
11
4.1355
21
8.21515
31
0.0
0
LINE
100
AcDbEntity
62
7
8
HANDALSTONE_pc119
100
AcDbLine
10
4.1355
20
8.21515
30
0.0
11
4.1427
21
8.17816
31
0.0
0
LINE
100
AcDbEntity
62
7
8
HANDALSTONE_pc119
100
AcDbLine
10
4.1427
20
8.17816
30
0.0
11
4.1509
21
8.1416
31
0.0
0
LINE
100
AcDbEntity
62
7
8
HANDALSTONE_pc119
100
AcDbLine
10
4.1509
20
8.1416
30
0.0
11
4.1601
21
8.1055
31
0.0
0
LINE
100
AcDbEntity
62
7
8
HANDALSTONE_pc119
100
AcDbLine
10
4.1601
20
8.1055
30
0.0
11
4.1704
21
8.06995
31
0.0
0
LINE
100
AcDbEntity
62
7
8
HANDALSTONE_pc119
100
AcDbLine
10
4.1704
20
8.06995
30
0.0
11
4.1819
21
8.035
31
0.0
0
LINE
100
AcDbEntity
62
7
8
HANDALSTONE_pc119
100
AcDbLine
10
4.1819
20
8.035
30
0.0
11
4.1948
21
8.00073
31
0.0
0
LINE
100
AcDbEntity
62
7
8
HANDALSTONE_pc119
100
AcDbLine
10
4.1948
20
8.00073
30
0.0
11
4.2092
21
7.96719
31
0.0
0
LINE
100
AcDbEntity
62
7
8
HANDALSTONE_pc119
100
AcDbLine
10
4.2092
20
7.96719
30
0.0
11
4.2251
21
7.93445
31
0.0
0
LINE
100
AcDbEntity
62
7
8
HANDALSTONE_pc119
100
AcDbLine
10
4.2251
20
7.93445
30
0.0
11
4.2427
21
7.90256
31
0.0
0
LINE
100
AcDbEntity
62
7
8
HANDALSTONE_pc119
100
AcDbLine
10
4.2427
20
7.90256
30
0.0
11
4.2621
21
7.8716
31
0.0
0
LINE
100
AcDbEntity
62
7
8
HANDALSTONE_pc119
100
AcDbLine
10
4.2621
20
7.8716
30
0.0
11
4.2834
21
7.84163
31
0.0
0
LINE
100
AcDbEntity
62
7
8
HANDALSTONE_pc119
100
AcDbLine
10
4.2834
20
7.84163
30
0.0
11
4.3066
21
7.81271
31
0.0
0
LINE
100
AcDbEntity
62
7
8
HANDALSTONE_pc119
100
AcDbLine
10
4.3066
20
7.81271
30
0.0
11
4.3319
21
7.78491
31
0.0
0
LINE
100
AcDbEntity
62
7
8
HANDALSTONE_pc119
100
AcDbLine
10
4.3319
20
7.78491
30
0.0
11
4.3594
21
7.75829
31
0.0
0
LINE
100
AcDbEntity
62
7
8
HANDALSTONE_pc119
100
AcDbLine
10
4.3594
20
7.75829
30
0.0
11
4.3893
21
7.73291
31
0.0
0
LINE
100
AcDbEntity
62
7
8
HANDALSTONE_pc119
100
AcDbLine
10
4.3893
20
7.73291
30
0.0
11
4.4215
21
7.70885
31
0.0
0
LINE
100
AcDbEntity
62
7
8
HANDALSTONE_pc119
100
AcDbLine
10
4.4215
20
7.70885
30
0.0
11
4.4562
21
7.68616
31
0.0
0
LINE
100
AcDbEntity
62
7
8
HANDALSTONE_pc119
100
AcDbLine
10
4.4562
20
7.68616
30
0.0
11
4.4936
21
7.6649
31
0.0
0
LINE
100
AcDbEntity
62
7
8
HANDALSTONE_pc119
100
AcDbLine
10
4.4936
20
7.6649
30
0.0
11
4.5337
21
7.64514
31
0.0
0
LINE
100
AcDbEntity
62
7
8
HANDALSTONE_pc119
100
AcDbLine
10
4.5337
20
7.64514
30
0.0
11
4.5766
21
7.62695
31
0.0
0
LINE
100
AcDbEntity
62
7
8
HANDALSTONE_pc119
100
AcDbLine
10
4.5766
20
7.62695
30
0.0
11
4.6225
21
7.6104
31
0.0
0
LINE
100
AcDbEntity
62
7
8
HANDALSTONE_pc119
100
AcDbLine
10
4.6225
20
7.6104
30
0.0
11
4.6714
21
7.59552
31
0.0
0
LINE
100
AcDbEntity
62
7
8
HANDALSTONE_pc119
100
AcDbLine
10
4.6714
20
7.59552
30
0.0
11
4.7235
21
7.58241
31
0.0
0
LINE
100
AcDbEntity
62
7
8
HANDALSTONE_pc119
100
AcDbLine
10
4.7235
20
7.58241
30
0.0
11
4.7788
21
7.57112
31
0.0
0
LINE
100
AcDbEntity
62
7
8
HANDALSTONE_pc119
100
AcDbLine
10
4.7788
20
7.57112
30
0.0
11
4.7788
21
7.00589
31
0.0
0
LINE
100
AcDbEntity
62
7
8
HANDALSTONE_pc119
100
AcDbLine
10
4.7788
20
7.00589
30
0.0
11
5.1762
21
7.00589
31
0.0
0
LINE
100
AcDbEntity
62
7
8
HANDALSTONE_pc119
100
AcDbLine
10
5.1762
20
7.00589
30
0.0
11
5.1762
21
5.89926
31
0.0
0
LINE
100
AcDbEntity
62
7
8
HANDALSTONE_pc119
100
AcDbLine
10
5.1762
20
5.89926
30
0.0
11
4.7788
21
5.89926
31
0.0
0
LINE
100
AcDbEntity
62
7
8
HANDALSTONE_pc119
100
AcDbLine
10
4.7788
20
5.89926
30
0.0
11
4.7788
21
2.74609
31
0.0
0
LINE
100
AcDbEntity
62
7
8
HANDALSTONE_pc119
100
AcDbLine
10
4.7788
20
2.74609
30
0.0
11
4.7782
21
2.6929
31
0.0
0
LINE
100
AcDbEntity
62
7
8
HANDALSTONE_pc119
100
AcDbLine
10
4.7782
20
2.6929
30
0.0
11
4.7767
21
2.64272
31
0.0
0
LINE
100
AcDbEntity
62
7
8
HANDALSTONE_pc119
100
AcDbLine
10
4.7767
20
2.64272
30
0.0
11
4.7744
21
2.59544
31
0.0
0
LINE
100
AcDbEntity
62
7
8
HANDALSTONE_pc119
100
AcDbLine
10
4.7744
20
2.59544
30
0.0
11
4.7713
21
2.55099
31
0.0
0
LINE
100
AcDbEntity
62
7
8
HANDALSTONE_pc119
100
AcDbLine
10
4.7713
20
2.55099
30
0.0
11
4.7674
21
2.50929
31
0.0
0
LINE
100
AcDbEntity
62
7
8
HANDALSTONE_pc119
100
AcDbLine
10
4.7674
20
2.50929
30
0.0
11
4.7626
21
2.47025
31
0.0
0
LINE
100
AcDbEntity
62
7
8
HANDALSTONE_pc119
100
AcDbLine
10
4.7626
20
2.47025
30
0.0
11
4.757
21
2.43378
31
0.0
0
LINE
100
AcDbEntity
62
7
8
HANDALSTONE_pc119
100
AcDbLine
10
4.757
20
2.43378
30
0.0
11
4.7504
21
2.39978
31
0.0
0
LINE
100
AcDbEntity
62
7
8
HANDALSTONE_pc119
100
AcDbLine
10
4.7504
20
2.39978
30
0.0
11
4.743
21
2.36819
31
0.0
0
LINE
100
AcDbEntity
62
7
8
HANDALSTONE_pc119
100
AcDbLine
10
4.743
20
2.36819
30
0.0
11
4.7347
21
2.33891
31
0.0
0
LINE
100
AcDbEntity
62
7
8
HANDALSTONE_pc119
100
AcDbLine
10
4.7347
20
2.33891
30
0.0
11
4.7254
21
2.31186
31
0.0
0
LINE
100
AcDbEntity
62
7
8
HANDALSTONE_pc119
100
AcDbLine
10
4.7254
20
2.31186
30
0.0
11
4.7152
21
2.28694
31
0.0
0
LINE
100
AcDbEntity
62
7
8
HANDALSTONE_pc119
100
AcDbLine
10
4.7152
20
2.28694
30
0.0
11
4.7041
21
2.26408
31
0.0
0
LINE
100
AcDbEntity
62
7
8
HANDALSTONE_pc119
100
AcDbLine
10
4.7041
20
2.26408
30
0.0
11
4.6919
21
2.2432
31
0.0
0
LINE
100
AcDbEntity
62
7
8
HANDALSTONE_pc119
100
AcDbLine
10
4.6919
20
2.2432
30
0.0
11
4.6788
21
2.2242
31
0.0
0
LINE
100
AcDbEntity
62
7
8
HANDALSTONE_pc119
100
AcDbLine
10
4.6788
20
2.2242
30
0.0
11
4.6646
21
2.2069
31
0.0
0
LINE
100
AcDbEntity
62
7
8
HANDALSTONE_pc119
100
AcDbLine
10
4.6646
20
2.2069
30
0.0
11
4.6495
21
2.1914
31
0.0
0
LINE
100
AcDbEntity
62
7
8
HANDALSTONE_pc119
100
AcDbLine
10
4.6495
20
2.1914
30
0.0
11
4.6332
21
2.1776
31
0.0
0
LINE
100
AcDbEntity
62
7
8
HANDALSTONE_pc119
100
AcDbLine
10
4.6332
20
2.1776
30
0.0
11
4.616
21
2.1652
31
0.0
0
LINE
100
AcDbEntity
62
7
8
HANDALSTONE_pc119
100
AcDbLine
10
4.616
20
2.1652
30
0.0
11
4.5976
21
2.1543
31
0.0
0
LINE
100
AcDbEntity
62
7
8
HANDALSTONE_pc119
100
AcDbLine
10
4.5976
20
2.1543
30
0.0
11
4.5782
21
2.1448
31
0.0
0
LINE
100
AcDbEntity
62
7
8
HANDALSTONE_pc119
100
AcDbLine
10
4.5782
20
2.1448
30
0.0
11
4.5576
21
2.1366
31
0.0
0
LINE
100
AcDbEntity
62
7
8
HANDALSTONE_pc119
100
AcDbLine
10
4.5576
20
2.1366
30
0.0
11
4.536
21
2.1295
31
0.0
0
LINE
100
AcDbEntity
62
7
8
HANDALSTONE_pc119
100
AcDbLine
10
4.536
20
2.1295
30
0.0
11
4.5132
21
2.1236
31
0.0
0
LINE
100
AcDbEntity
62
7
8
HANDALSTONE_pc119
100
AcDbLine
10
4.5132
20
2.1236
30
0.0
11
4.4892
21
2.1186
31
0.0
0
LINE
100
AcDbEntity
62
7
8
HANDALSTONE_pc119
100
AcDbLine
10
4.4892
20
2.1186
30
0.0
11
4.4641
21
2.1146
31
0.0
0
LINE
100
AcDbEntity
62
7
8
HANDALSTONE_pc119
100
AcDbLine
10
4.4641
20
2.1146
30
0.0
11
4.4377
21
2.1115
31
0.0
0
LINE
100
AcDbEntity
62
7
8
HANDALSTONE_pc119
100
AcDbLine
10
4.4377
20
2.1115
30
0.0
11
4.4102
21
2.1091
31
0.0
0
LINE
100
AcDbEntity
62
7
8
HANDALSTONE_pc119
100
AcDbLine
10
4.4102
20
2.1091
30
0.0
11
4.3814
21
2.1074
31
0.0
0
LINE
100
AcDbEntity
62
7
8
HANDALSTONE_pc119
100
AcDbLine
10
4.3814
20
2.1074
30
0.0
11
4.3202
21
2.1057
31
0.0
0
LINE
100
AcDbEntity
62
7
8
HANDALSTONE_pc119
100
AcDbLine
10
4.3202
20
2.1057
30
0.0
11
4.3202
21
1.7924
31
0.0
0
LINE
100
AcDbEntity
62
7
8
HANDALSTONE_pc119
100
AcDbLine
10
4.3202
20
1.7924
30
0.0
11
4.2801
21
1.7885
31
0.0
0
LINE
100
AcDbEntity
62
7
8
HANDALSTONE_pc119
100
AcDbLine
10
4.2801
20
1.7885
30
0.0
11
4.2407
21
1.783
31
0.0
0
LINE
100
AcDbEntity
62
7
8
HANDALSTONE_pc119
100
AcDbLine
10
4.2407
20
1.783
30
0.0
11
4.2018
21
1.7757
31
0.0
0
LINE
100
AcDbEntity
62
7
8
HANDALSTONE_pc119
100
AcDbLine
10
4.2018
20
1.7757
30
0.0
11
4.1637
21
1.7669
31
0.0
0
LINE
100
AcDbEntity
62
7
8
HANDALSTONE_pc119
100
AcDbLine
10
4.1637
20
1.7669
30
0.0
11
4.1263
21
1.7566
31
0.0
0
LINE
100
AcDbEntity
62
7
8
HANDALSTONE_pc119
100
AcDbLine
10
4.1263
20
1.7566
30
0.0
11
4.0896
21
1.7447
31
0.0
0
LINE
100
AcDbEntity
62
7
8
HANDALSTONE_pc119
100
AcDbLine
10
4.0896
20
1.7447
30
0.0
11
4.0538
21
1.7313
31
0.0
0
LINE
100
AcDbEntity
62
7
8
HANDALSTONE_pc119
100
AcDbLine
10
4.0538
20
1.7313
30
0.0
11
4.0189
21
1.7165
31
0.0
0
LINE
100
AcDbEntity
62
7
8
HANDALSTONE_pc119
100
AcDbLine
10
4.0189
20
1.7165
30
0.0
11
3.9848
21
1.7004
31
0.0
0
LINE
100
AcDbEntity
62
7
8
HANDALSTONE_pc119
100
AcDbLine
10
3.9848
20
1.7004
30
0.0
11
3.9517
21
1.6828
31
0.0
0
LINE
100
AcDbEntity
62
7
8
HANDALSTONE_pc119
100
AcDbLine
10
3.9517
20
1.6828
30
0.0
11
3.9197
21
1.664
31
0.0
0
LINE
100
AcDbEntity
62
7
8
HANDALSTONE_pc119
100
AcDbLine
10
3.9197
20
1.664
30
0.0
11
3.8886
21
1.6439
31
0.0
0
LINE
100
AcDbEntity
62
7
8
HANDALSTONE_pc119
100
AcDbLine
10
3.8886
20
1.6439
30
0.0
11
3.8586
21
1.6225
31
0.0
0
LINE
100
AcDbEntity
62
7
8
HANDALSTONE_pc119
100
AcDbLine
10
3.8586
20
1.6225
30
0.0
11
3.8298
21
1.5999
31
0.0
0
LINE
100
AcDbEntity
62
7
8
HANDALSTONE_pc119
100
AcDbLine
10
3.8298
20
1.5999
30
0.0
11
3.8021
21
1.5762
31
0.0
0
LINE
100
AcDbEntity
62
7
8
HANDALSTONE_pc119
100
AcDbLine
10
3.8021
20
1.5762
30
0.0
11
3.7757
21
1.5514
31
0.0
0
LINE
100
AcDbEntity
62
7
8
HANDALSTONE_pc119
100
AcDbLine
10
3.7757
20
1.5514
30
0.0
11
3.7505
21
1.5255
31
0.0
0
LINE
100
AcDbEntity
62
7
8
HANDALSTONE_pc119
100
AcDbLine
10
3.7505
20
1.5255
30
0.0
11
3.7266
21
1.4986
31
0.0
0
LINE
100
AcDbEntity
62
7
8
HANDALSTONE_pc119
100
AcDbLine
10
3.7266
20
1.4986
30
0.0
11
3.7041
21
1.4706
31
0.0
0
LINE
100
AcDbEntity
62
7
8
HANDALSTONE_pc119
100
AcDbLine
10
3.7041
20
1.4706
30
0.0
11
3.683
21
1.4417
31
0.0
0
LINE
100
AcDbEntity
62
7
8
HANDALSTONE_pc119
100
AcDbLine
10
3.683
20
1.4417
30
0.0
11
3.6633
21
1.4119
31
0.0
0
LINE
100
AcDbEntity
62
7
8
HANDALSTONE_pc119
100
AcDbLine
10
3.6633
20
1.4119
30
0.0
11
3.645
21
1.3813
31
0.0
0
LINE
100
AcDbEntity
62
7
8
HANDALSTONE_pc119
100
AcDbLine
10
3.645
20
1.3813
30
0.0
11
3.6283
21
1.3497
31
0.0
0
LINE
100
AcDbEntity
62
7
8
HANDALSTONE_pc119
100
AcDbLine
10
3.6283
20
1.3497
30
0.0
11
3.6132
21
1.3174
31
0.0
0
LINE
100
AcDbEntity
62
7
8
HANDALSTONE_pc119
100
AcDbLine
10
3.6132
20
1.3174
30
0.0
11
3.5997
21
1.2843
31
0.0
0
LINE
100
AcDbEntity
62
7
8
HANDALSTONE_pc119
100
AcDbLine
10
3.5997
20
1.2843
30
0.0
11
3.5879
21
1.2505
31
0.0
0
LINE
100
AcDbEntity
62
7
8
HANDALSTONE_pc119
100
AcDbLine
10
3.5879
20
1.2505
30
0.0
11
3.5777
21
1.2161
31
0.0
0
LINE
100
AcDbEntity
62
7
8
HANDALSTONE_pc119
100
AcDbLine
10
3.5777
20
1.2161
30
0.0
11
3.5693
21
1.181
31
0.0
0
LINE
100
AcDbEntity
62
7
8
HANDALSTONE_pc119
100
AcDbLine
10
3.5693
20
1.181
30
0.0
11
3.5627
21
1.1453
31
0.0
0
LINE
100
AcDbEntity
62
7
8
HANDALSTONE_pc119
100
AcDbLine
10
3.5627
20
1.1453
30
0.0
11
3.5579
21
1.109
31
0.0
0
LINE
100
AcDbEntity
62
7
8
HANDALSTONE_pc119
100
AcDbLine
10
3.5579
20
1.109
30
0.0
11
3.555
21
1.0722
31
0.0
0
LINE
100
AcDbEntity
62
7
8
HANDALSTONE_pc119
100
AcDbLine
10
3.555
20
1.0722
30
0.0
11
3.5541
21
1.0349
31
0.0
0
LINE
100
AcDbEntity
62
7
8
HANDALSTONE_pc119
100
AcDbLine
10
3.5541
20
1.0349
30
0.0
11
3.5551
21
0.9973
31
0.0
0
LINE
100
AcDbEntity
62
7
8
HANDALSTONE_pc119
100
AcDbLine
10
3.5551
20
0.9973
30
0.0
11
3.558
21
0.9601
31
0.0
0
LINE
100
AcDbEntity
62
7
8
HANDALSTONE_pc119
100
AcDbLine
10
3.558
20
0.9601
30
0.0
11
3.5629
21
0.9234
31
0.0
0
LINE
100
AcDbEntity
62
7
8
HANDALSTONE_pc119
100
AcDbLine
10
3.5629
20
0.9234
30
0.0
11
3.5697
21
0.8873
31
0.0
0
LINE
100
AcDbEntity
62
7
8
HANDALSTONE_pc119
100
AcDbLine
10
3.5697
20
0.8873
30
0.0
11
3.5783
21
0.8518
31
0.0
0
LINE
100
AcDbEntity
62
7
8
HANDALSTONE_pc119
100
AcDbLine
10
3.5783
20
0.8518
30
0.0
11
3.5886
21
0.817
31
0.0
0
LINE
100
AcDbEntity
62
7
8
HANDALSTONE_pc119
100
AcDbLine
10
3.5886
20
0.817
30
0.0
11
3.6007
21
0.7829
31
0.0
0
LINE
100
AcDbEntity
62
7
8
HANDALSTONE_pc119
100
AcDbLine
10
3.6007
20
0.7829
30
0.0
11
3.6145
21
0.7495
31
0.0
0
LINE
100
AcDbEntity
62
7
8
HANDALSTONE_pc119
100
AcDbLine
10
3.6145
20
0.7495
30
0.0
11
3.63
21
0.7169
31
0.0
0
LINE
100
AcDbEntity
62
7
8
HANDALSTONE_pc119
100
AcDbLine
10
3.63
20
0.7169
30
0.0
11
3.647
21
0.6851
31
0.0
0
LINE
100
AcDbEntity
62
7
8
HANDALSTONE_pc119
100
AcDbLine
10
3.647
20
0.6851
30
0.0
11
3.6656
21
0.6542
31
0.0
0
LINE
100
AcDbEntity
62
7
8
HANDALSTONE_pc119
100
AcDbLine
10
3.6656
20
0.6542
30
0.0
11
3.6857
21
0.6242
31
0.0
0
LINE
100
AcDbEntity
62
7
8
HANDALSTONE_pc119
100
AcDbLine
10
3.6857
20
0.6242
30
0.0
11
3.7073
21
0.5951
31
0.0
0
LINE
100
AcDbEntity
62
7
8
HANDALSTONE_pc119
100
AcDbLine
10
3.7073
20
0.5951
30
0.0
11
3.7303
21
0.567
31
0.0
0
LINE
100
AcDbEntity
62
7
8
HANDALSTONE_pc119
100
AcDbLine
10
3.7303
20
0.567
30
0.0
11
3.7547
21
0.5399
31
0.0
0
LINE
100
AcDbEntity
62
7
8
HANDALSTONE_pc119
100
AcDbLine
10
3.7547
20
0.5399
30
0.0
11
3.7804
21
0.5139
31
0.0
0
LINE
100
AcDbEntity
62
7
8
HANDALSTONE_pc119
100
AcDbLine
10
3.7804
20
0.5139
30
0.0
11
3.8073
21
0.489
31
0.0
0
LINE
100
AcDbEntity
62
7
8
HANDALSTONE_pc119
100
AcDbLine
10
3.8073
20
0.489
30
0.0
11
3.8355
21
0.4652
31
0.0
0
LINE
100
AcDbEntity
62
7
8
HANDALSTONE_pc119
100
AcDbLine
10
3.8355
20
0.4652
30
0.0
11
3.8649
21
0.4426
31
0.0
0
LINE
100
AcDbEntity
62
7
8
HANDALSTONE_pc119
100
AcDbLine
10
3.8649
20
0.4426
30
0.0
11
3.8955
21
0.4213
31
0.0
0
LINE
100
AcDbEntity
62
7
8
HANDALSTONE_pc119
100
AcDbLine
10
3.8955
20
0.4213
30
0.0
11
3.9271
21
0.4012
31
0.0
0
LINE
100
AcDbEntity
62
7
8
HANDALSTONE_pc119
100
AcDbLine
10
3.9271
20
0.4012
30
0.0
11
3.9598
21
0.3825
31
0.0
0
LINE
100
AcDbEntity
62
7
8
HANDALSTONE_pc119
100
AcDbLine
10
3.9598
20
0.3825
30
0.0
11
3.9935
21
0.3651
31
0.0
0
LINE
100
AcDbEntity
62
7
8
HANDALSTONE_pc119
100
AcDbLine
10
3.9935
20
0.3651
30
0.0
11
4.0282
21
0.3491
31
0.0
0
LINE
100
AcDbEntity
62
7
8
HANDALSTONE_pc119
100
AcDbLine
10
4.0282
20
0.3491
30
0.0
11
4.0637
21
0.3345
31
0.0
0
LINE
100
AcDbEntity
62
7
8
HANDALSTONE_pc119
100
AcDbLine
10
4.0637
20
0.3345
30
0.0
11
4.1002
21
0.3214
31
0.0
0
LINE
100
AcDbEntity
62
7
8
HANDALSTONE_pc119
100
AcDbLine
10
4.1002
20
0.3214
30
0.0
11
4.1375
21
0.3098
31
0.0
0
LINE
100
AcDbEntity
62
7
8
HANDALSTONE_pc119
100
AcDbLine
10
4.1375
20
0.3098
30
0.0
11
4.1755
21
0.2997
31
0.0
0
LINE
100
AcDbEntity
62
7
8
HANDALSTONE_pc119
100
AcDbLine
10
4.1755
20
0.2997
30
0.0
11
4.2143
21
0.2913
31
0.0
0
LINE
100
AcDbEntity
62
7
8
HANDALSTONE_pc119
100
AcDbLine
10
4.2143
20
0.2913
30
0.0
11
4.2538
21
0.2845
31
0.0
0
LINE
100
AcDbEntity
62
7
8
HANDALSTONE_pc119
100
AcDbLine
10
4.2538
20
0.2845
30
0.0
11
4.2939
21
0.2794
31
0.0
0
LINE
100
AcDbEntity
62
7
8
HANDALSTONE_pc119
100
AcDbLine
10
4.2939
20
0.2794
30
0.0
11
4.3346
21
0.276
31
0.0
0
LINE
100
AcDbEntity
62
7
8
HANDALSTONE_pc119
100
AcDbLine
10
4.3346
20
0.276
30
0.0
11
4.3346
21
0
31
0.0
0
LINE
100
AcDbEntity
62
7
8
HANDALSTONE_pc119
100
AcDbLine
10
4.3346
20
0
30
0.0
11
48.6654
21
0
31
0.0
0
LINE
100
AcDbEntity
62
7
8
HANDALSTONE_pc119
100
AcDbLine
10
48.6654
20
0
30
0.0
11
48.6654
21
0.276
31
0.0
0
LINE
100
AcDbEntity
62
7
8
HANDALSTONE_pc119
100
AcDbLine
10
48.6654
20
0.276
30
0.0
11
48.7061
21
0.2794
31
0.0
0
LINE
100
AcDbEntity
62
7
8
HANDALSTONE_pc119
100
AcDbLine
10
48.7061
20
0.2794
30
0.0
11
48.7462
21
0.2845
31
0.0
0
LINE
100
AcDbEntity
62
7
8
HANDALSTONE_pc119
100
AcDbLine
10
48.7462
20
0.2845
30
0.0
11
48.7857
21
0.2913
31
0.0
0
LINE
100
AcDbEntity
62
7
8
HANDALSTONE_pc119
100
AcDbLine
10
48.7857
20
0.2913
30
0.0
11
48.8245
21
0.2997
31
0.0
0
LINE
100
AcDbEntity
62
7
8
HANDALSTONE_pc119
100
AcDbLine
10
48.8245
20
0.2997
30
0.0
11
48.8625
21
0.3098
31
0.0
0
LINE
100
AcDbEntity
62
7
8
HANDALSTONE_pc119
100
AcDbLine
10
48.8625
20
0.3098
30
0.0
11
48.8998
21
0.3214
31
0.0
0
LINE
100
AcDbEntity
62
7
8
HANDALSTONE_pc119
100
AcDbLine
10
48.8998
20
0.3214
30
0.0
11
48.9363
21
0.3345
31
0.0
0
LINE
100
AcDbEntity
62
7
8
HANDALSTONE_pc119
100
AcDbLine
10
48.9363
20
0.3345
30
0.0
11
48.9718
21
0.3491
31
0.0
0
LINE
100
AcDbEntity
62
7
8
HANDALSTONE_pc119
100
AcDbLine
10
48.9718
20
0.3491
30
0.0
11
49.0065
21
0.3651
31
0.0
0
LINE
100
AcDbEntity
62
7
8
HANDALSTONE_pc119
100
AcDbLine
10
49.0065
20
0.3651
30
0.0
11
49.0402
21
0.3825
31
0.0
0
LINE
100
AcDbEntity
62
7
8
HANDALSTONE_pc119
100
AcDbLine
10
49.0402
20
0.3825
30
0.0
11
49.0729
21
0.4012
31
0.0
0
LINE
100
AcDbEntity
62
7
8
HANDALSTONE_pc119
100
AcDbLine
10
49.0729
20
0.4012
30
0.0
11
49.1045
21
0.4213
31
0.0
0
LINE
100
AcDbEntity
62
7
8
HANDALSTONE_pc119
100
AcDbLine
10
49.1045
20
0.4213
30
0.0
11
49.1351
21
0.4426
31
0.0
0
LINE
100
AcDbEntity
62
7
8
HANDALSTONE_pc119
100
AcDbLine
10
49.1351
20
0.4426
30
0.0
11
49.1645
21
0.4652
31
0.0
0
LINE
100
AcDbEntity
62
7
8
HANDALSTONE_pc119
100
AcDbLine
10
49.1645
20
0.4652
30
0.0
11
49.1927
21
0.489
31
0.0
0
LINE
100
AcDbEntity
62
7
8
HANDALSTONE_pc119
100
AcDbLine
10
49.1927
20
0.489
30
0.0
11
49.2196
21
0.5139
31
0.0
0
LINE
100
AcDbEntity
62
7
8
HANDALSTONE_pc119
100
AcDbLine
10
49.2196
20
0.5139
30
0.0
11
49.2453
21
0.5399
31
0.0
0
LINE
100
AcDbEntity
62
7
8
HANDALSTONE_pc119
100
AcDbLine
10
49.2453
20
0.5399
30
0.0
11
49.2697
21
0.567
31
0.0
0
LINE
100
AcDbEntity
62
7
8
HANDALSTONE_pc119
100
AcDbLine
10
49.2697
20
0.567
30
0.0
11
49.2927
21
0.5951
31
0.0
0
LINE
100
AcDbEntity
62
7
8
HANDALSTONE_pc119
100
AcDbLine
10
49.2927
20
0.5951
30
0.0
11
49.3143
21
0.6242
31
0.0
0
LINE
100
AcDbEntity
62
7
8
HANDALSTONE_pc119
100
AcDbLine
10
49.3143
20
0.6242
30
0.0
11
49.3344
21
0.6542
31
0.0
0
LINE
100
AcDbEntity
62
7
8
HANDALSTONE_pc119
100
AcDbLine
10
49.3344
20
0.6542
30
0.0
11
49.353
21
0.6851
31
0.0
0
LINE
100
AcDbEntity
62
7
8
HANDALSTONE_pc119
100
AcDbLine
10
49.353
20
0.6851
30
0.0
11
49.37
21
0.7169
31
0.0
0
LINE
100
AcDbEntity
62
7
8
HANDALSTONE_pc119
100
AcDbLine
10
49.37
20
0.7169
30
0.0
11
49.3855
21
0.7495
31
0.0
0
LINE
100
AcDbEntity
62
7
8
HANDALSTONE_pc119
100
AcDbLine
10
49.3855
20
0.7495
30
0.0
11
49.3993
21
0.7829
31
0.0
0
LINE
100
AcDbEntity
62
7
8
HANDALSTONE_pc119
100
AcDbLine
10
49.3993
20
0.7829
30
0.0
11
49.4114
21
0.817
31
0.0
0
LINE
100
AcDbEntity
62
7
8
HANDALSTONE_pc119
100
AcDbLine
10
49.4114
20
0.817
30
0.0
11
49.4217
21
0.8518
31
0.0
0
LINE
100
AcDbEntity
62
7
8
HANDALSTONE_pc119
100
AcDbLine
10
49.4217
20
0.8518
30
0.0
11
49.4303
21
0.8873
31
0.0
0
LINE
100
AcDbEntity
62
7
8
HANDALSTONE_pc119
100
AcDbLine
10
49.4303
20
0.8873
30
0.0
11
49.4371
21
0.9234
31
0.0
0
LINE
100
AcDbEntity
62
7
8
HANDALSTONE_pc119
100
AcDbLine
10
49.4371
20
0.9234
30
0.0
11
49.442
21
0.9601
31
0.0
0
LINE
100
AcDbEntity
62
7
8
HANDALSTONE_pc119
100
AcDbLine
10
49.442
20
0.9601
30
0.0
11
49.4449
21
0.9973
31
0.0
0
LINE
100
AcDbEntity
62
7
8
HANDALSTONE_pc119
100
AcDbLine
10
49.4449
20
0.9973
30
0.0
11
49.4459
21
1.0349
31
0.0
0
LINE
100
AcDbEntity
62
7
8
HANDALSTONE_pc119
100
AcDbLine
10
49.4459
20
1.0349
30
0.0
11
49.445
21
1.0722
31
0.0
0
LINE
100
AcDbEntity
62
7
8
HANDALSTONE_pc119
100
AcDbLine
10
49.445
20
1.0722
30
0.0
11
49.4421
21
1.109
31
0.0
0
LINE
100
AcDbEntity
62
7
8
HANDALSTONE_pc119
100
AcDbLine
10
49.4421
20
1.109
30
0.0
11
49.4373
21
1.1453
31
0.0
0
LINE
100
AcDbEntity
62
7
8
HANDALSTONE_pc119
100
AcDbLine
10
49.4373
20
1.1453
30
0.0
11
49.4307
21
1.181
31
0.0
0
LINE
100
AcDbEntity
62
7
8
HANDALSTONE_pc119
100
AcDbLine
10
49.4307
20
1.181
30
0.0
11
49.4223
21
1.2161
31
0.0
0
LINE
100
AcDbEntity
62
7
8
HANDALSTONE_pc119
100
AcDbLine
10
49.4223
20
1.2161
30
0.0
11
49.4121
21
1.2505
31
0.0
0
LINE
100
AcDbEntity
62
7
8
HANDALSTONE_pc119
100
AcDbLine
10
49.4121
20
1.2505
30
0.0
11
49.4003
21
1.2843
31
0.0
0
LINE
100
AcDbEntity
62
7
8
HANDALSTONE_pc119
100
AcDbLine
10
49.4003
20
1.2843
30
0.0
11
49.3868
21
1.3174
31
0.0
0
LINE
100
AcDbEntity
62
7
8
HANDALSTONE_pc119
100
AcDbLine
10
49.3868
20
1.3174
30
0.0
11
49.3717
21
1.3497
31
0.0
0
LINE
100
AcDbEntity
62
7
8
HANDALSTONE_pc119
100
AcDbLine
10
49.3717
20
1.3497
30
0.0
11
49.355
21
1.3813
31
0.0
0
LINE
100
AcDbEntity
62
7
8
HANDALSTONE_pc119
100
AcDbLine
10
49.355
20
1.3813
30
0.0
11
49.3367
21
1.4119
31
0.0
0
LINE
100
AcDbEntity
62
7
8
HANDALSTONE_pc119
100
AcDbLine
10
49.3367
20
1.4119
30
0.0
11
49.317
21
1.4417
31
0.0
0
LINE
100
AcDbEntity
62
7
8
HANDALSTONE_pc119
100
AcDbLine
10
49.317
20
1.4417
30
0.0
11
49.2959
21
1.4706
31
0.0
0
LINE
100
AcDbEntity
62
7
8
HANDALSTONE_pc119
100
AcDbLine
10
49.2959
20
1.4706
30
0.0
11
49.2734
21
1.4986
31
0.0
0
LINE
100
AcDbEntity
62
7
8
HANDALSTONE_pc119
100
AcDbLine
10
49.2734
20
1.4986
30
0.0
11
49.2495
21
1.5255
31
0.0
0
LINE
100
AcDbEntity
62
7
8
HANDALSTONE_pc119
100
AcDbLine
10
49.2495
20
1.5255
30
0.0
11
49.2243
21
1.5514
31
0.0
0
LINE
100
AcDbEntity
62
7
8
HANDALSTONE_pc119
100
AcDbLine
10
49.2243
20
1.5514
30
0.0
11
49.1979
21
1.5762
31
0.0
0
LINE
100
AcDbEntity
62
7
8
HANDALSTONE_pc119
100
AcDbLine
10
49.1979
20
1.5762
30
0.0
11
49.1702
21
1.5999
31
0.0
0
LINE
100
AcDbEntity
62
7
8
HANDALSTONE_pc119
100
AcDbLine
10
49.1702
20
1.5999
30
0.0
11
49.1414
21
1.6225
31
0.0
0
LINE
100
AcDbEntity
62
7
8
HANDALSTONE_pc119
100
AcDbLine
10
49.1414
20
1.6225
30
0.0
11
49.1114
21
1.6439
31
0.0
0
LINE
100
AcDbEntity
62
7
8
HANDALSTONE_pc119
100
AcDbLine
10
49.1114
20
1.6439
30
0.0
11
49.0803
21
1.664
31
0.0
0
LINE
100
AcDbEntity
62
7
8
HANDALSTONE_pc119
100
AcDbLine
10
49.0803
20
1.664
30
0.0
11
49.0483
21
1.6828
31
0.0
0
LINE
100
AcDbEntity
62
7
8
HANDALSTONE_pc119
100
AcDbLine
10
49.0483
20
1.6828
30
0.0
11
49.0152
21
1.7004
31
0.0
0
LINE
100
AcDbEntity
62
7
8
HANDALSTONE_pc119
100
AcDbLine
10
49.0152
20
1.7004
30
0.0
11
48.9811
21
1.7165
31
0.0
0
LINE
100
AcDbEntity
62
7
8
HANDALSTONE_pc119
100
AcDbLine
10
48.9811
20
1.7165
30
0.0
11
48.9462
21
1.7313
31
0.0
0
LINE
100
AcDbEntity
62
7
8
HANDALSTONE_pc119
100
AcDbLine
10
48.9462
20
1.7313
30
0.0
11
48.9104
21
1.7447
31
0.0
0
LINE
100
AcDbEntity
62
7
8
HANDALSTONE_pc119
100
AcDbLine
10
48.9104
20
1.7447
30
0.0
11
48.8737
21
1.7566
31
0.0
0
LINE
100
AcDbEntity
62
7
8
HANDALSTONE_pc119
100
AcDbLine
10
48.8737
20
1.7566
30
0.0
11
48.8363
21
1.7669
31
0.0
0
LINE
100
AcDbEntity
62
7
8
HANDALSTONE_pc119
100
AcDbLine
10
48.8363
20
1.7669
30
0.0
11
48.7982
21
1.7757
31
0.0
0
LINE
100
AcDbEntity
62
7
8
HANDALSTONE_pc119
100
AcDbLine
10
48.7982
20
1.7757
30
0.0
11
48.7593
21
1.783
31
0.0
0
LINE
100
AcDbEntity
62
7
8
HANDALSTONE_pc119
100
AcDbLine
10
48.7593
20
1.783
30
0.0
11
48.7199
21
1.7885
31
0.0
0
LINE
100
AcDbEntity
62
7
8
HANDALSTONE_pc119
100
AcDbLine
10
48.7199
20
1.7885
30
0.0
11
48.6798
21
1.7924
31
0.0
0
LINE
100
AcDbEntity
62
7
8
HANDALSTONE_pc119
100
AcDbLine
10
48.6798
20
1.7924
30
0.0
11
48.6798
21
2.1057
31
0.0
0
LINE
100
AcDbEntity
62
7
8
HANDALSTONE_pc119
100
AcDbLine
10
48.6798
20
2.1057
30
0.0
11
48.6186
21
2.1074
31
0.0
0
LINE
100
AcDbEntity
62
7
8
HANDALSTONE_pc119
100
AcDbLine
10
48.6186
20
2.1074
30
0.0
11
48.5898
21
2.1091
31
0.0
0
LINE
100
AcDbEntity
62
7
8
HANDALSTONE_pc119
100
AcDbLine
10
48.5898
20
2.1091
30
0.0
11
48.5623
21
2.1115
31
0.0
0
LINE
100
AcDbEntity
62
7
8
HANDALSTONE_pc119
100
AcDbLine
10
48.5623
20
2.1115
30
0.0
11
48.5359
21
2.1146
31
0.0
0
LINE
100
AcDbEntity
62
7
8
HANDALSTONE_pc119
100
AcDbLine
10
48.5359
20
2.1146
30
0.0
11
48.5108
21
2.1186
31
0.0
0
LINE
100
AcDbEntity
62
7
8
HANDALSTONE_pc119
100
AcDbLine
10
48.5108
20
2.1186
30
0.0
11
48.4868
21
2.1236
31
0.0
0
LINE
100
AcDbEntity
62
7
8
HANDALSTONE_pc119
100
AcDbLine
10
48.4868
20
2.1236
30
0.0
11
48.464
21
2.1295
31
0.0
0
LINE
100
AcDbEntity
62
7
8
HANDALSTONE_pc119
100
AcDbLine
10
48.464
20
2.1295
30
0.0
11
48.4424
21
2.1366
31
0.0
0
LINE
100
AcDbEntity
62
7
8
HANDALSTONE_pc119
100
AcDbLine
10
48.4424
20
2.1366
30
0.0
11
48.4218
21
2.1448
31
0.0
0
LINE
100
AcDbEntity
62
7
8
HANDALSTONE_pc119
100
AcDbLine
10
48.4218
20
2.1448
30
0.0
11
48.4024
21
2.1543
31
0.0
0
LINE
100
AcDbEntity
62
7
8
HANDALSTONE_pc119
100
AcDbLine
10
48.4024
20
2.1543
30
0.0
11
48.384
21
2.1652
31
0.0
0
LINE
100
AcDbEntity
62
7
8
HANDALSTONE_pc119
100
AcDbLine
10
48.384
20
2.1652
30
0.0
11
48.3668
21
2.1776
31
0.0
0
LINE
100
AcDbEntity
62
7
8
HANDALSTONE_pc119
100
AcDbLine
10
48.3668
20
2.1776
30
0.0
11
48.3505
21
2.1914
31
0.0
0
LINE
100
AcDbEntity
62
7
8
HANDALSTONE_pc119
100
AcDbLine
10
48.3505
20
2.1914
30
0.0
11
48.3354
21
2.2069
31
0.0
0
LINE
100
AcDbEntity
62
7
8
HANDALSTONE_pc119
100
AcDbLine
10
48.3354
20
2.2069
30
0.0
11
48.3212
21
2.2242
31
0.0
0
LINE
100
AcDbEntity
62
7
8
HANDALSTONE_pc119
100
AcDbLine
10
48.3212
20
2.2242
30
0.0
11
48.3081
21
2.2432
31
0.0
0
LINE
100
AcDbEntity
62
7
8
HANDALSTONE_pc119
100
AcDbLine
10
48.3081
20
2.2432
30
0.0
11
48.2959
21
2.26408
31
0.0
0
LINE
100
AcDbEntity
62
7
8
HANDALSTONE_pc119
100
AcDbLine
10
48.2959
20
2.26408
30
0.0
11
48.2848
21
2.28694
31
0.0
0
LINE
100
AcDbEntity
62
7
8
HANDALSTONE_pc119
100
AcDbLine
10
48.2848
20
2.28694
30
0.0
11
48.2746
21
2.31186
31
0.0
0
LINE
100
AcDbEntity
62
7
8
HANDALSTONE_pc119
100
AcDbLine
10
48.2746
20
2.31186
30
0.0
11
48.2653
21
2.33891
31
0.0
0
LINE
100
AcDbEntity
62
7
8
HANDALSTONE_pc119
100
AcDbLine
10
48.2653
20
2.33891
30
0.0
11
48.257
21
2.36819
31
0.0
0
LINE
100
AcDbEntity
62
7
8
HANDALSTONE_pc119
100
AcDbLine
10
48.257
20
2.36819
30
0.0
11
48.2496
21
2.39978
31
0.0
0
LINE
100
AcDbEntity
62
7
8
HANDALSTONE_pc119
100
AcDbLine
10
48.2496
20
2.39978
30
0.0
11
48.243
21
2.43378
31
0.0
0
LINE
100
AcDbEntity
62
7
8
HANDALSTONE_pc119
100
AcDbLine
10
48.243
20
2.43378
30
0.0
11
48.2374
21
2.47025
31
0.0
0
LINE
100
AcDbEntity
62
7
8
HANDALSTONE_pc119
100
AcDbLine
10
48.2374
20
2.47025
30
0.0
11
48.2326
21
2.50929
31
0.0
0
LINE
100
AcDbEntity
62
7
8
HANDALSTONE_pc119
100
AcDbLine
10
48.2326
20
2.50929
30
0.0
11
48.2287
21
2.55099
31
0.0
0
LINE
100
AcDbEntity
62
7
8
HANDALSTONE_pc119
100
AcDbLine
10
48.2287
20
2.55099
30
0.0
11
48.2256
21
2.59544
31
0.0
0
LINE
100
AcDbEntity
62
7
8
HANDALSTONE_pc119
100
AcDbLine
10
48.2256
20
2.59544
30
0.0
11
48.2233
21
2.64272
31
0.0
0
LINE
100
AcDbEntity
62
7
8
HANDALSTONE_pc119
100
AcDbLine
10
48.2233
20
2.64272
30
0.0
11
48.2218
21
2.6929
31
0.0
0
LINE
100
AcDbEntity
62
7
8
HANDALSTONE_pc119
100
AcDbLine
10
48.2218
20
2.6929
30
0.0
11
48.2212
21
2.74609
31
0.0
0
LINE
100
AcDbEntity
62
7
8
HANDALSTONE_pc119
100
AcDbLine
10
48.2212
20
2.74609
30
0.0
11
48.2212
21
5.89926
31
0.0
0
LINE
100
AcDbEntity
62
7
8
HANDALSTONE_pc119
100
AcDbLine
10
48.2212
20
5.89926
30
0.0
11
47.8238
21
5.89926
31
0.0
0
LINE
100
AcDbEntity
62
7
8
HANDALSTONE_pc119
100
AcDbLine
10
47.8238
20
5.89926
30
0.0
11
47.8238
21
7.00589
31
0.0
0
LINE
100
AcDbEntity
62
7
8
HANDALSTONE_pc119
100
AcDbLine
10
47.8238
20
7.00589
30
0.0
11
48.2212
21
7.00589
31
0.0
0
LINE
100
AcDbEntity
62
7
8
HANDALSTONE_pc119
100
AcDbLine
10
48.2212
20
7.00589
30
0.0
11
48.2212
21
7.57112
31
0.0
0
LINE
100
AcDbEntity
62
7
8
HANDALSTONE_pc119
100
AcDbLine
10
48.2212
20
7.57112
30
0.0
11
48.2765
21
7.58241
31
0.0
0
LINE
100
AcDbEntity
62
7
8
HANDALSTONE_pc119
100
AcDbLine
10
48.2765
20
7.58241
30
0.0
11
48.3286
21
7.59552
31
0.0
0
LINE
100
AcDbEntity
62
7
8
HANDALSTONE_pc119
100
AcDbLine
10
48.3286
20
7.59552
30
0.0
11
48.3775
21
7.6104
31
0.0
0
LINE
100
AcDbEntity
62
7
8
HANDALSTONE_pc119
100
AcDbLine
10
48.3775
20
7.6104
30
0.0
11
48.4234
21
7.62695
31
0.0
0
LINE
100
AcDbEntity
62
7
8
HANDALSTONE_pc119
100
AcDbLine
10
48.4234
20
7.62695
30
0.0
11
48.4663
21
7.64514
31
0.0
0
LINE
100
AcDbEntity
62
7
8
HANDALSTONE_pc119
100
AcDbLine
10
48.4663
20
7.64514
30
0.0
11
48.5064
21
7.6649
31
0.0
0
LINE
100
AcDbEntity
62
7
8
HANDALSTONE_pc119
100
AcDbLine
10
48.5064
20
7.6649
30
0.0
11
48.5438
21
7.68616
31
0.0
0
LINE
100
AcDbEntity
62
7
8
HANDALSTONE_pc119
100
AcDbLine
10
48.5438
20
7.68616
30
0.0
11
48.5785
21
7.70885
31
0.0
0
LINE
100
AcDbEntity
62
7
8
HANDALSTONE_pc119
100
AcDbLine
10
48.5785
20
7.70885
30
0.0
11
48.6107
21
7.73291
31
0.0
0
LINE
100
AcDbEntity
62
7
8
HANDALSTONE_pc119
100
AcDbLine
10
48.6107
20
7.73291
30
0.0
11
48.6406
21
7.75829
31
0.0
0
LINE
100
AcDbEntity
62
7
8
HANDALSTONE_pc119
100
AcDbLine
10
48.6406
20
7.75829
30
0.0
11
48.6681
21
7.78491
31
0.0
0
LINE
100
AcDbEntity
62
7
8
HANDALSTONE_pc119
100
AcDbLine
10
48.6681
20
7.78491
30
0.0
11
48.6934
21
7.81271
31
0.0
0
LINE
100
AcDbEntity
62
7
8
HANDALSTONE_pc119
100
AcDbLine
10
48.6934
20
7.81271
30
0.0
11
48.7166
21
7.84163
31
0.0
0
LINE
100
AcDbEntity
62
7
8
HANDALSTONE_pc119
100
AcDbLine
10
48.7166
20
7.84163
30
0.0
11
48.7379
21
7.8716
31
0.0
0
LINE
100
AcDbEntity
62
7
8
HANDALSTONE_pc119
100
AcDbLine
10
48.7379
20
7.8716
30
0.0
11
48.7573
21
7.90256
31
0.0
0
LINE
100
AcDbEntity
62
7
8
HANDALSTONE_pc119
100
AcDbLine
10
48.7573
20
7.90256
30
0.0
11
48.7749
21
7.93445
31
0.0
0
LINE
100
AcDbEntity
62
7
8
HANDALSTONE_pc119
100
AcDbLine
10
48.7749
20
7.93445
30
0.0
11
48.7908
21
7.96719
31
0.0
0
LINE
100
AcDbEntity
62
7
8
HANDALSTONE_pc119
100
AcDbLine
10
48.7908
20
7.96719
30
0.0
11
48.8052
21
8.00073
31
0.0
0
LINE
100
AcDbEntity
62
7
8
HANDALSTONE_pc119
100
AcDbLine
10
48.8052
20
8.00073
30
0.0
11
48.8181
21
8.035
31
0.0
0
LINE
100
AcDbEntity
62
7
8
HANDALSTONE_pc119
100
AcDbLine
10
48.8181
20
8.035
30
0.0
11
48.8296
21
8.06995
31
0.0
0
LINE
100
AcDbEntity
62
7
8
HANDALSTONE_pc119
100
AcDbLine
10
48.8296
20
8.06995
30
0.0
11
48.8399
21
8.1055
31
0.0
0
LINE
100
AcDbEntity
62
7
8
HANDALSTONE_pc119
100
AcDbLine
10
48.8399
20
8.1055
30
0.0
11
48.8491
21
8.1416
31
0.0
0
LINE
100
AcDbEntity
62
7
8
HANDALSTONE_pc119
100
AcDbLine
10
48.8491
20
8.1416
30
0.0
11
48.8573
21
8.17816
31
0.0
0
LINE
100
AcDbEntity
62
7
8
HANDALSTONE_pc119
100
AcDbLine
10
48.8573
20
8.17816
30
0.0
11
48.8645
21
8.21515
31
0.0
0
LINE
100
AcDbEntity
62
7
8
HANDALSTONE_pc119
100
AcDbLine
10
48.8645
20
8.21515
30
0.0
11
48.8709
21
8.25249
31
0.0
0
LINE
100
AcDbEntity
62
7
8
HANDALSTONE_pc119
100
AcDbLine
10
48.8709
20
8.25249
30
0.0
11
48.8766
21
8.2901
31
0.0
0
LINE
100
AcDbEntity
62
7
8
HANDALSTONE_pc119
100
AcDbLine
10
48.8766
20
8.2901
30
0.0
11
48.8862
21
8.36594
31
0.0
0
LINE
100
AcDbEntity
62
7
8
HANDALSTONE_pc119
100
AcDbLine
10
48.8862
20
8.36594
30
0.0
11
48.8943
21
8.44215
31
0.0
0
LINE
100
AcDbEntity
62
7
8
HANDALSTONE_pc119
100
AcDbLine
10
48.8943
20
8.44215
30
0.0
11
48.9091
21
8.59366
31
0.0
0
LINE
100
AcDbEntity
62
7
8
HANDALSTONE_pc119
100
AcDbLine
10
48.9091
20
8.59366
30
0.0
11
48.9175
21
8.66794
31
0.0
0
LINE
100
AcDbEntity
62
7
8
HANDALSTONE_pc119
100
AcDbLine
10
48.9175
20
8.66794
30
0.0
11
48.9277
21
8.74054
31
0.0
0
LINE
100
AcDbEntity
62
7
8
HANDALSTONE_pc119
100
AcDbLine
10
48.9277
20
8.74054
30
0.0
11
48.9338
21
8.77605
31
0.0
0
LINE
100
AcDbEntity
62
7
8
HANDALSTONE_pc119
100
AcDbLine
10
48.9338
20
8.77605
30
0.0
11
48.9406
21
8.81096
31
0.0
0
LINE
100
AcDbEntity
62
7
8
HANDALSTONE_pc119
100
AcDbLine
10
48.9406
20
8.81096
30
0.0
11
48.9483
21
8.84518
31
0.0
0
LINE
100
AcDbEntity
62
7
8
HANDALSTONE_pc119
100
AcDbLine
10
48.9483
20
8.84518
30
0.0
11
48.957
21
8.87868
31
0.0
0
LINE
100
AcDbEntity
62
7
8
HANDALSTONE_pc119
100
AcDbLine
10
48.957
20
8.87868
30
0.0
11
48.9667
21
8.91138
31
0.0
0
LINE
100
AcDbEntity
62
7
8
HANDALSTONE_pc119
100
AcDbLine
10
48.9667
20
8.91138
30
0.0
11
48.9777
21
8.94321
31
0.0
0
LINE
100
AcDbEntity
62
7
8
HANDALSTONE_pc119
100
AcDbLine
10
48.9777
20
8.94321
30
0.0
11
48.9899
21
8.97409
31
0.0
0
LINE
100
AcDbEntity
62
7
8
HANDALSTONE_pc119
100
AcDbLine
10
48.9899
20
8.97409
30
0.0
11
49.0036
21
9.004
31
0.0
0
LINE
100
AcDbEntity
62
7
8
HANDALSTONE_pc119
100
AcDbLine
10
49.0036
20
9.004
30
0.0
11
49.0187
21
9.03285
31
0.0
0
LINE
100
AcDbEntity
62
7
8
HANDALSTONE_pc119
100
AcDbLine
10
49.0187
20
9.03285
30
0.0
11
49.0355
21
9.06058
31
0.0
0
LINE
100
AcDbEntity
62
7
8
HANDALSTONE_pc119
100
AcDbLine
10
49.0355
20
9.06058
30
0.0
11
49.054
21
9.08711
31
0.0
0
LINE
100
AcDbEntity
62
7
8
HANDALSTONE_pc119
100
AcDbLine
10
49.054
20
9.08711
30
0.0
11
49.0744
21
9.11241
31
0.0
0
LINE
100
AcDbEntity
62
7
8
HANDALSTONE_pc119
100
AcDbLine
10
49.0744
20
9.11241
30
0.0
11
49.0966
21
9.13638
31
0.0
0
LINE
100
AcDbEntity
62
7
8
HANDALSTONE_pc119
100
AcDbLine
10
49.0966
20
9.13638
30
0.0
11
49.1209
21
9.159
31
0.0
0
LINE
100
AcDbEntity
62
7
8
HANDALSTONE_pc119
100
AcDbLine
10
49.1209
20
9.159
30
0.0
11
49.1474
21
9.18016
31
0.0
0
LINE
100
AcDbEntity
62
7
8
HANDALSTONE_pc119
100
AcDbLine
10
49.1474
20
9.18016
30
0.0
11
49.1761
21
9.19981
31
0.0
0
LINE
100
AcDbEntity
62
7
8
HANDALSTONE_pc119
100
AcDbLine
10
49.1761
20
9.19981
30
0.0
11
49.2072
21
9.2179
31
0.0
0
LINE
100
AcDbEntity
62
7
8
HANDALSTONE_pc119
100
AcDbLine
10
49.2072
20
9.2179
30
0.0
11
49.2407
21
9.23436
31
0.0
0
LINE
100
AcDbEntity
62
7
8
HANDALSTONE_pc119
100
AcDbLine
10
49.2407
20
9.23436
30
0.0
11
49.2768
21
9.24911
31
0.0
0
LINE
100
AcDbEntity
62
7
8
HANDALSTONE_pc119
100
AcDbLine
10
49.2768
20
9.24911
30
0.0
11
49.3156
21
9.26212
31
0.0
0
LINE
100
AcDbEntity
62
7
8
HANDALSTONE_pc119
100
AcDbLine
10
49.3156
20
9.26212
30
0.0
11
49.3571
21
9.27328
31
0.0
0
LINE
100
AcDbEntity
62
7
8
HANDALSTONE_pc119
100
AcDbLine
10
49.3571
20
9.27328
30
0.0
11
49.4016
21
9.28258
31
0.0
0
LINE
100
AcDbEntity
62
7
8
HANDALSTONE_pc119
100
AcDbLine
10
49.4016
20
9.28258
30
0.0
11
49.449
21
9.28992
31
0.0
0
LINE
100
AcDbEntity
62
7
8
HANDALSTONE_pc119
100
AcDbLine
10
49.449
20
9.28992
30
0.0
11
49.4996
21
9.29523
31
0.0
0
LINE
100
AcDbEntity
62
7
8
HANDALSTONE_pc119
100
AcDbLine
10
49.4996
20
9.29523
30
0.0
11
49.5533
21
9.29846
31
0.0
0
LINE
100
AcDbEntity
62
7
8
HANDALSTONE_pc119
100
AcDbLine
10
49.5533
20
9.29846
30
0.0
11
49.6104
21
9.29956
31
0.0
0
LINE
100
AcDbEntity
62
7
8
HANDALSTONE_pc119
100
AcDbLine
10
49.6104
20
9.29956
30
0.0
11
49.6099
21
9.442
31
0.0
0
LINE
100
AcDbEntity
62
7
8
HANDALSTONE_pc119
100
AcDbLine
10
49.6099
20
9.442
30
0.0
11
49.6469
21
9.4438
31
0.0
0
LINE
100
AcDbEntity
62
7
8
HANDALSTONE_pc119
100
AcDbLine
10
49.6469
20
9.4438
30
0.0
11
49.681
21
9.44769
31
0.0
0
LINE
100
AcDbEntity
62
7
8
HANDALSTONE_pc119
100
AcDbLine
10
49.681
20
9.44769
30
0.0
11
49.7122
21
9.45381
31
0.0
0
LINE
100
AcDbEntity
62
7
8
HANDALSTONE_pc119
100
AcDbLine
10
49.7122
20
9.45381
30
0.0
11
49.7268
21
9.45775
31
0.0
0
LINE
100
AcDbEntity
62
7
8
HANDALSTONE_pc119
100
AcDbLine
10
49.7268
20
9.45775
30
0.0
11
49.7406
21
9.46225
31
0.0
0
LINE
100
AcDbEntity
62
7
8
HANDALSTONE_pc119
100
AcDbLine
10
49.7406
20
9.46225
30
0.0
11
49.7538
21
9.46738
31
0.0
0
LINE
100
AcDbEntity
62
7
8
HANDALSTONE_pc119
100
AcDbLine
10
49.7538
20
9.46738
30
0.0
11
49.7664
21
9.4731
31
0.0
0
LINE
100
AcDbEntity
62
7
8
HANDALSTONE_pc119
100
AcDbLine
10
49.7664
20
9.4731
30
0.0
11
49.7783
21
9.47946
31
0.0
0
LINE
100
AcDbEntity
62
7
8
HANDALSTONE_pc119
100
AcDbLine
10
49.7783
20
9.47946
30
0.0
11
49.7895
21
9.48647
31
0.0
0
LINE
100
AcDbEntity
62
7
8
HANDALSTONE_pc119
100
AcDbLine
10
49.7895
20
9.48647
30
0.0
11
49.8001
21
9.49413
31
0.0
0
LINE
100
AcDbEntity
62
7
8
HANDALSTONE_pc119
100
AcDbLine
10
49.8001
20
9.49413
30
0.0
11
49.81
21
9.50244
31
0.0
0
LINE
100
AcDbEntity
62
7
8
HANDALSTONE_pc119
100
AcDbLine
10
49.81
20
9.50244
30
0.0
11
49.8194
21
9.51144
31
0.0
0
LINE
100
AcDbEntity
62
7
8
HANDALSTONE_pc119
100
AcDbLine
10
49.8194
20
9.51144
30
0.0
11
49.8281
21
9.52115
31
0.0
0
LINE
100
AcDbEntity
62
7
8
HANDALSTONE_pc119
100
AcDbLine
10
49.8281
20
9.52115
30
0.0
11
49.8363
21
9.53154
31
0.0
0
LINE
100
AcDbEntity
62
7
8
HANDALSTONE_pc119
100
AcDbLine
10
49.8363
20
9.53154
30
0.0
11
49.8438
21
9.54265
31
0.0
0
LINE
100
AcDbEntity
62
7
8
HANDALSTONE_pc119
100
AcDbLine
10
49.8438
20
9.54265
30
0.0
11
49.8507
21
9.55449
31
0.0
0
LINE
100
AcDbEntity
62
7
8
HANDALSTONE_pc119
100
AcDbLine
10
49.8507
20
9.55449
30
0.0
11
49.8571
21
9.56708
31
0.0
0
LINE
100
AcDbEntity
62
7
8
HANDALSTONE_pc119
100
AcDbLine
10
49.8571
20
9.56708
30
0.0
11
49.863
21
9.5804
31
0.0
0
LINE
100
AcDbEntity
62
7
8
HANDALSTONE_pc119
100
AcDbLine
10
49.863
20
9.5804
30
0.0
11
49.8682
21
9.5945
31
0.0
0
LINE
100
AcDbEntity
62
7
8
HANDALSTONE_pc119
100
AcDbLine
10
49.8682
20
9.5945
30
0.0
11
49.8771
21
9.62505
31
0.0
0
LINE
100
AcDbEntity
62
7
8
HANDALSTONE_pc119
100
AcDbLine
10
49.8771
20
9.62505
30
0.0
11
49.8839
21
9.65881
31
0.0
0
LINE
100
AcDbEntity
62
7
8
HANDALSTONE_pc119
100
AcDbLine
10
49.8839
20
9.65881
30
0.0
11
49.8887
21
9.69589
31
0.0
0
LINE
100
AcDbEntity
62
7
8
HANDALSTONE_pc119
100
AcDbLine
10
49.8887
20
9.69589
30
0.0
11
49.8915
21
9.73637
31
0.0
0
LINE
100
AcDbEntity
62
7
8
HANDALSTONE_pc119
100
AcDbLine
10
49.8915
20
9.73637
30
0.0
11
49.8924
21
9.78036
31
0.0
0
LINE
100
AcDbEntity
62
7
8
HANDALSTONE_pc119
100
AcDbLine
10
49.8924
20
9.78036
30
0.0
11
50.1654
21
9.78036
31
0.0
0
LINE
100
AcDbEntity
62
7
8
HANDALSTONE_pc119
100
AcDbLine
10
50.1654
20
9.78036
30
0.0
11
50.1654
21
11.35672
31
0.0
0
LINE
100
AcDbEntity
62
7
8
HANDALSTONE_pc119
100
AcDbLine
10
50.1654
20
11.35672
30
0.0
11
48.6193
21
11.35672
31
0.0
0
LINE
100
AcDbEntity
62
7
8
HANDALSTONE_pc119
100
AcDbLine
10
48.6193
20
11.35672
30
0.0
11
48.5971
21
11.3577
31
0.0
0
LINE
100
AcDbEntity
62
7
8
HANDALSTONE_pc119
100
AcDbLine
10
48.5971
20
11.3577
30
0.0
11
48.5614
21
11.3604
31
0.0
0
LINE
100
AcDbEntity
62
7
8
HANDALSTONE_pc119
100
AcDbLine
10
48.5614
20
11.3604
30
0.0
11
48.5259
21
11.36446
31
0.0
0
LINE
100
AcDbEntity
62
7
8
HANDALSTONE_pc119
100
AcDbLine
10
48.5259
20
11.36446
30
0.0
11
48.4906
21
11.37012
31
0.0
0
LINE
100
AcDbEntity
62
7
8
HANDALSTONE_pc119
100
AcDbLine
10
48.4906
20
11.37012
30
0.0
11
48.4559
21
11.37758
31
0.0
0
LINE
100
AcDbEntity
62
7
8
HANDALSTONE_pc119
100
AcDbLine
10
48.4559
20
11.37758
30
0.0
11
48.422
21
11.3871
31
0.0
0
LINE
100
AcDbEntity
62
7
8
HANDALSTONE_pc119
100
AcDbLine
10
48.422
20
11.3871
30
0.0
11
48.3892
21
11.39889
31
0.0
0
LINE
100
AcDbEntity
62
7
8
HANDALSTONE_pc119
100
AcDbLine
10
48.3892
20
11.39889
30
0.0
11
48.3733
21
11.40572
31
0.0
0
LINE
100
AcDbEntity
62
7
8
HANDALSTONE_pc119
100
AcDbLine
10
48.3733
20
11.40572
30
0.0
11
48.3577
21
11.41319
31
0.0
0
LINE
100
AcDbEntity
62
7
8
HANDALSTONE_pc119
100
AcDbLine
10
48.3577
20
11.41319
30
0.0
11
48.3426
21
11.42136
31
0.0
0
LINE
100
AcDbEntity
62
7
8
HANDALSTONE_pc119
100
AcDbLine
10
48.3426
20
11.42136
30
0.0
11
48.3278
21
11.43022
31
0.0
0
LINE
100
AcDbEntity
62
7
8
HANDALSTONE_pc119
100
AcDbLine
10
48.3278
20
11.43022
30
0.0
11
48.3135
21
11.43983
31
0.0
0
LINE
100
AcDbEntity
62
7
8
HANDALSTONE_pc119
100
AcDbLine
10
48.3135
20
11.43983
30
0.0
11
48.2997
21
11.45021
31
0.0
0
LINE
100
AcDbEntity
62
7
8
HANDALSTONE_pc119
100
AcDbLine
10
48.2997
20
11.45021
30
0.0
11
48.2864
21
11.46138
31
0.0
0
LINE
100
AcDbEntity
62
7
8
HANDALSTONE_pc119
100
AcDbLine
10
48.2864
20
11.46138
30
0.0
11
48.2737
21
11.47337
31
0.0
0
LINE
100
AcDbEntity
62
7
8
HANDALSTONE_pc119
100
AcDbLine
10
48.2737
20
11.47337
30
0.0
11
48.2615
21
11.48622
31
0.0
0
LINE
100
AcDbEntity
62
7
8
HANDALSTONE_pc119
100
AcDbLine
10
48.2615
20
11.48622
30
0.0
11
48.25
21
11.49995
31
0.0
0
LINE
100
AcDbEntity
62
7
8
HANDALSTONE_pc119
100
AcDbLine
10
48.25
20
11.49995
30
0.0
11
47.1654
21
11.49998
31
0.0
0
LINE
100
AcDbEntity
62
7
8
HANDALSTONE_pc119
100
AcDbLine
10
47.1654
20
11.49998
30
0.0
11
47.1654
21
11.49995
31
0.0
0
LINE
100
AcDbEntity
62
7
8
HANDALSTONE_pc119
100
AcDbLine
10
47.1654
20
11.49995
30
0.0
11
47.1334
21
11.49995
31
0.0
0
LINE
100
AcDbEntity
62
7
8
HANDALSTONE_pc119
100
AcDbLine
10
47.1334
20
11.49995
30
0.0
11
47.1334
21
11.49998
31
0.0
0
LINE
100
AcDbEntity
62
7
8
HANDALSTONE_pc119
100
AcDbLine
10
47.1334
20
11.49998
30
0.0
11
50.5
21
11.49998
31
0.0
0
LINE
100
AcDbEntity
62
7
8
HANDALSTONE_pc119
100
AcDbLine
10
50.5
20
11.49998
30
0.0
11
50.5006
21
11.57739
31
0.0
0
LINE
100
AcDbEntity
62
7
8
HANDALSTONE_pc119
100
AcDbLine
10
50.5006
20
11.57739
30
0.0
11
50.5025
21
11.65433
31
0.0
0
LINE
100
AcDbEntity
62
7
8
HANDALSTONE_pc119
100
AcDbLine
10
50.5025
20
11.65433
30
0.0
11
50.5056
21
11.73076
31
0.0
0
LINE
100
AcDbEntity
62
7
8
HANDALSTONE_pc119
100
AcDbLine
10
50.5056
20
11.73076
30
0.0
11
50.5099
21
11.80667
31
0.0
0
LINE
100
AcDbEntity
62
7
8
HANDALSTONE_pc119
100
AcDbLine
10
50.5099
20
11.80667
30
0.0
11
50.5154
21
11.88202
31
0.0
0
LINE
100
AcDbEntity
62
7
8
HANDALSTONE_pc119
100
AcDbLine
10
50.5154
20
11.88202
30
0.0
11
50.5222
21
11.95679
31
0.0
0
LINE
100
AcDbEntity
62
7
8
HANDALSTONE_pc119
100
AcDbLine
10
50.5222
20
11.95679
30
0.0
11
50.5302
21
12.03096
31
0.0
0
LINE
100
AcDbEntity
62
7
8
HANDALSTONE_pc119
100
AcDbLine
10
50.5302
20
12.03096
30
0.0
11
50.5395
21
12.10451
31
0.0
0
LINE
100
AcDbEntity
62
7
8
HANDALSTONE_pc119
100
AcDbLine
10
50.5395
20
12.10451
30
0.0
11
50.5499
21
12.1774
31
0.0
0
LINE
100
AcDbEntity
62
7
8
HANDALSTONE_pc119
100
AcDbLine
10
50.5499
20
12.1774
30
0.0
11
50.5616
21
12.24963
31
0.0
0
LINE
100
AcDbEntity
62
7
8
HANDALSTONE_pc119
100
AcDbLine
10
50.5616
20
12.24963
30
0.0
11
50.5746
21
12.32115
31
0.0
0
LINE
100
AcDbEntity
62
7
8
HANDALSTONE_pc119
100
AcDbLine
10
50.5746
20
12.32115
30
0.0
11
50.5887
21
12.39197
31
0.0
0
LINE
100
AcDbEntity
62
7
8
HANDALSTONE_pc119
100
AcDbLine
10
50.5887
20
12.39197
30
0.0
11
50.6041
21
12.46205
31
0.0
0
LINE
100
AcDbEntity
62
7
8
HANDALSTONE_pc119
100
AcDbLine
10
50.6041
20
12.46205
30
0.0
11
50.6208
21
12.53136
31
0.0
0
LINE
100
AcDbEntity
62
7
8
HANDALSTONE_pc119
100
AcDbLine
10
50.6208
20
12.53136
30
0.0
11
50.6386
21
12.59987
31
0.0
0
LINE
100
AcDbEntity
62
7
8
HANDALSTONE_pc119
100
AcDbLine
10
50.6386
20
12.59987
30
0.0
11
50.6577
21
12.66759
31
0.0
0
LINE
100
AcDbEntity
62
7
8
HANDALSTONE_pc119
100
AcDbLine
10
50.6577
20
12.66759
30
0.0
11
50.6779
21
12.73445
31
0.0
0
LINE
100
AcDbEntity
62
7
8
HANDALSTONE_pc119
100
AcDbLine
10
50.6779
20
12.73445
30
0.0
11
50.6995
21
12.80048
31
0.0
0
LINE
100
AcDbEntity
62
7
8
HANDALSTONE_pc119
100
AcDbLine
10
50.6995
20
12.80048
30
0.0
11
50.7222
21
12.8656
31
0.0
0
LINE
100
AcDbEntity
62
7
8
HANDALSTONE_pc119
100
AcDbLine
10
50.7222
20
12.8656
30
0.0
11
50.7462
21
12.92983
31
0.0
0
LINE
100
AcDbEntity
62
7
8
HANDALSTONE_pc119
100
AcDbLine
10
50.7462
20
12.92983
30
0.0
11
50.7713
21
12.99312
31
0.0
0
LINE
100
AcDbEntity
62
7
8
HANDALSTONE_pc119
100
AcDbLine
10
50.7713
20
12.99312
30
0.0
11
50.7977
21
13.05545
31
0.0
0
LINE
100
AcDbEntity
62
7
8
HANDALSTONE_pc119
100
AcDbLine
10
50.7977
20
13.05545
30
0.0
11
50.8254
21
13.11681
31
0.0
0
LINE
100
AcDbEntity
62
7
8
HANDALSTONE_pc119
100
AcDbLine
10
50.8254
20
13.11681
30
0.0
11
50.8542
21
13.17717
31
0.0
0
LINE
100
AcDbEntity
62
7
8
HANDALSTONE_pc119
100
AcDbLine
10
50.8542
20
13.17717
30
0.0
11
50.8843
21
13.23651
31
0.0
0
LINE
100
AcDbEntity
62
7
8
HANDALSTONE_pc119
100
AcDbLine
10
50.8843
20
13.23651
30
0.0
11
50.9156
21
13.2948
31
0.0
0
LINE
100
AcDbEntity
62
7
8
HANDALSTONE_pc119
100
AcDbLine
10
50.9156
20
13.2948
30
0.0
11
50.9481
21
13.35201
31
0.0
0
LINE
100
AcDbEntity
62
7
8
HANDALSTONE_pc119
100
AcDbLine
10
50.9481
20
13.35201
30
0.0
11
50.9818
21
13.40813
31
0.0
0
LINE
100
AcDbEntity
62
7
8
HANDALSTONE_pc119
100
AcDbLine
10
50.9818
20
13.40813
30
0.0
11
51.0167
21
13.46313
31
0.0
0
LINE
100
AcDbEntity
62
7
8
HANDALSTONE_pc119
100
AcDbLine
10
51.0167
20
13.46313
30
0.0
11
51.0528
21
13.51698
31
0.0
0
LINE
100
AcDbEntity
62
7
8
HANDALSTONE_pc119
100
AcDbLine
10
51.0528
20
13.51698
30
0.0
11
51.0902
21
13.56969
31
0.0
0
LINE
100
AcDbEntity
62
7
8
HANDALSTONE_pc119
100
AcDbLine
10
51.0902
20
13.56969
30
0.0
11
51.1288
21
13.62119
31
0.0
0
LINE
100
AcDbEntity
62
7
8
HANDALSTONE_pc119
100
AcDbLine
10
51.1288
20
13.62119
30
0.0
11
51.1686
21
13.67148
31
0.0
0
LINE
100
AcDbEntity
62
7
8
HANDALSTONE_pc119
100
AcDbLine
10
51.1686
20
13.67148
30
0.0
11
51.2096
21
13.72052
31
0.0
0
LINE
100
AcDbEntity
62
7
8
HANDALSTONE_pc119
100
AcDbLine
10
51.2096
20
13.72052
30
0.0
11
51.2518
21
13.76831
31
0.0
0
LINE
100
AcDbEntity
62
7
8
HANDALSTONE_pc119
100
AcDbLine
10
51.2518
20
13.76831
30
0.0
11
51.2952
21
13.81482
31
0.0
0
LINE
100
AcDbEntity
62
7
8
HANDALSTONE_pc119
100
AcDbLine
10
51.2952
20
13.81482
30
0.0
11
51.3398
21
13.86003
31
0.0
0
LINE
100
AcDbEntity
62
7
8
HANDALSTONE_pc119
100
AcDbLine
10
51.3398
20
13.86003
30
0.0
11
51.3857
21
13.9039
31
0.0
0
LINE
100
AcDbEntity
62
7
8
HANDALSTONE_pc119
100
AcDbLine
10
51.3857
20
13.9039
30
0.0
11
51.4327
21
13.94641
31
0.0
0
LINE
100
AcDbEntity
62
7
8
HANDALSTONE_pc119
100
AcDbLine
10
51.4327
20
13.94641
30
0.0
11
51.481
21
13.98755
31
0.0
0
LINE
100
AcDbEntity
62
7
8
HANDALSTONE_pc119
100
AcDbLine
10
51.481
20
13.98755
30
0.0
11
51.5305
21
14.02728
31
0.0
0
LINE
100
AcDbEntity
62
7
8
HANDALSTONE_pc119
100
AcDbLine
10
51.5305
20
14.02728
30
0.0
11
51.5811
21
14.06558
31
0.0
0
LINE
100
AcDbEntity
62
7
8
HANDALSTONE_pc119
100
AcDbLine
10
51.5811
20
14.06558
30
0.0
11
51.633
21
14.10245
31
0.0
0
LINE
100
AcDbEntity
62
7
8
HANDALSTONE_pc119
100
AcDbLine
10
51.633
20
14.10245
30
0.0
11
51.6861
21
14.13783
31
0.0
0
LINE
100
AcDbEntity
62
7
8
HANDALSTONE_pc119
100
AcDbLine
10
51.6861
20
14.13783
30
0.0
11
51.7404
21
14.17172
31
0.0
0
LINE
100
AcDbEntity
62
7
8
HANDALSTONE_pc119
100
AcDbLine
10
51.7404
20
14.17172
30
0.0
11
51.7959
21
14.20409
31
0.0
0
LINE
100
AcDbEntity
62
7
8
HANDALSTONE_pc119
100
AcDbLine
10
51.7959
20
14.20409
30
0.0
11
51.8526
21
14.23491
31
0.0
0
LINE
100
AcDbEntity
62
7
8
HANDALSTONE_pc119
100
AcDbLine
10
51.8526
20
14.23491
30
0.0
11
51.9105
21
14.26418
31
0.0
0
LINE
100
AcDbEntity
62
7
8
HANDALSTONE_pc119
100
AcDbLine
10
51.9105
20
14.26418
30
0.0
11
51.9696
21
14.29184
31
0.0
0
LINE
100
AcDbEntity
62
7
8
HANDALSTONE_pc119
100
AcDbLine
10
51.9696
20
14.29184
30
0.0
11
52.0299
21
14.3179
31
0.0
0
LINE
100
AcDbEntity
62
7
8
HANDALSTONE_pc119
100
AcDbLine
10
52.0299
20
14.3179
30
0.0
11
52.0914
21
14.34232
31
0.0
0
LINE
100
AcDbEntity
62
7
8
HANDALSTONE_pc119
100
AcDbLine
10
52.0914
20
14.34232
30
0.0
11
52.1541
21
14.36507
31
0.0
0
LINE
100
AcDbEntity
62
7
8
HANDALSTONE_pc119
100
AcDbLine
10
52.1541
20
14.36507
30
0.0
11
52.218
21
14.38614
31
0.0
0
LINE
100
AcDbEntity
62
7
8
HANDALSTONE_pc119
100
AcDbLine
10
52.218
20
14.38614
30
0.0
11
52.2831
21
14.4055
31
0.0
0
LINE
100
AcDbEntity
62
7
8
HANDALSTONE_pc119
100
AcDbLine
10
52.2831
20
14.4055
30
0.0
11
52.3495
21
14.42314
31
0.0
0
LINE
100
AcDbEntity
62
7
8
HANDALSTONE_pc119
100
AcDbLine
10
52.3495
20
14.42314
30
0.0
11
52.417
21
14.43901
31
0.0
0
LINE
100
AcDbEntity
62
7
8
HANDALSTONE_pc119
100
AcDbLine
10
52.417
20
14.43901
30
0.0
11
52.4857
21
14.45311
31
0.0
0
LINE
100
AcDbEntity
62
7
8
HANDALSTONE_pc119
100
AcDbLine
10
52.4857
20
14.45311
30
0.0
11
52.5556
21
14.46539
31
0.0
0
LINE
100
AcDbEntity
62
7
8
HANDALSTONE_pc119
100
AcDbLine
10
52.5556
20
14.46539
30
0.0
11
52.6266
21
14.47586
31
0.0
0
LINE
100
AcDbEntity
62
7
8
HANDALSTONE_pc119
100
AcDbLine
10
52.6266
20
14.47586
30
0.0
11
52.6989
21
14.48448
31
0.0
0
LINE
100
AcDbEntity
62
7
8
HANDALSTONE_pc119
100
AcDbLine
10
52.6989
20
14.48448
30
0.0
11
52.7724
21
14.49123
31
0.0
0
LINE
100
AcDbEntity
62
7
8
HANDALSTONE_pc119
100
AcDbLine
10
52.7724
20
14.49123
30
0.0
11
52.8471
21
14.49606
31
0.0
0
LINE
100
AcDbEntity
62
7
8
HANDALSTONE_pc119
100
AcDbLine
10
52.8471
20
14.49606
30
0.0
11
52.9229
21
14.49899
31
0.0
0
LINE
100
AcDbEntity
62
7
8
HANDALSTONE_pc119
100
AcDbLine
10
52.9229
20
14.49899
30
0.0
11
53
21
14.49997
31
0.0
0
LINE
100
AcDbEntity
62
7
8
HANDALSTONE_pc119
100
AcDbLine
10
53
20
14.49997
30
0.0
11
53
21
17.49997
31
0.0
0
LINE
100
AcDbEntity
62
7
8
HANDALSTONE_pc119
100
AcDbLine
10
53
20
17.49997
30
0.0
11
26.5
21
24.5
31
0.0
0
LINE
100
AcDbEntity
62
7
8
HANDALSTONE_pc119
100
AcDbLine
10
26.5
20
24.5
30
0.0
11
0
21
17.49997
31
0.0
0
LINE
100
AcDbEntity
62
7
8
HANDALSTONE_pc119
100
AcDbLine
10
0
20
17.49997
30
0.0
11
0
21
14.49997
31
0.0
0
LINE
100
AcDbEntity
62
7
8
HANDALSTONE_pc119
100
AcDbLine
10
0
20
14.49997
30
0.0
11
0.0771
21
14.49899
31
0.0
0
LINE
100
AcDbEntity
62
7
8
HANDALSTONE_pc119
100
AcDbLine
10
0.0771
20
14.49899
30
0.0
11
0.1529
21
14.49606
31
0.0
0
LINE
100
AcDbEntity
62
7
8
HANDALSTONE_pc119
100
AcDbLine
10
0.1529
20
14.49606
30
0.0
11
0.2276
21
14.49123
31
0.0
0
LINE
100
AcDbEntity
62
7
8
HANDALSTONE_pc119
100
AcDbLine
10
0.2276
20
14.49123
30
0.0
11
0.3011
21
14.48448
31
0.0
0
LINE
100
AcDbEntity
62
7
8
HANDALSTONE_pc119
100
AcDbLine
10
0.3011
20
14.48448
30
0.0
11
0.3734
21
14.47586
31
0.0
0
LINE
100
AcDbEntity
62
7
8
HANDALSTONE_pc119
100
AcDbLine
10
0.3734
20
14.47586
30
0.0
11
0.4444
21
14.46539
31
0.0
0
LINE
100
AcDbEntity
62
7
8
HANDALSTONE_pc119
100
AcDbLine
10
0.4444
20
14.46539
30
0.0
11
0.5143
21
14.45311
31
0.0
0
LINE
100
AcDbEntity
62
7
8
HANDALSTONE_pc119
100
AcDbLine
10
0.5143
20
14.45311
30
0.0
11
0.583
21
14.43901
31
0.0
0
LINE
100
AcDbEntity
62
7
8
HANDALSTONE_pc119
100
AcDbLine
10
0.583
20
14.43901
30
0.0
11
0.6505
21
14.42314
31
0.0
0
LINE
100
AcDbEntity
62
7
8
HANDALSTONE_pc119
100
AcDbLine
10
0.6505
20
14.42314
30
0.0
11
0.7169
21
14.4055
31
0.0
0
LINE
100
AcDbEntity
62
7
8
HANDALSTONE_pc119
100
AcDbLine
10
0.7169
20
14.4055
30
0.0
11
0.782
21
14.38614
31
0.0
0
LINE
100
AcDbEntity
62
7
8
HANDALSTONE_pc119
100
AcDbLine
10
0.782
20
14.38614
30
0.0
11
0.8459
21
14.36507
31
0.0
0
LINE
100
AcDbEntity
62
7
8
HANDALSTONE_pc119
100
AcDbLine
10
0.8459
20
14.36507
30
0.0
11
0.9086
21
14.34232
31
0.0
0
LINE
100
AcDbEntity
62
7
8
HANDALSTONE_pc119
100
AcDbLine
10
0.9086
20
14.34232
30
0.0
11
0.9701
21
14.3179
31
0.0
0
LINE
100
AcDbEntity
62
7
8
HANDALSTONE_pc119
100
AcDbLine
10
0.9701
20
14.3179
30
0.0
11
1.0304
21
14.29184
31
0.0
0
LINE
100
AcDbEntity
62
7
8
HANDALSTONE_pc119
100
AcDbLine
10
1.0304
20
14.29184
30
0.0
11
1.0895
21
14.26418
31
0.0
0
LINE
100
AcDbEntity
62
7
8
HANDALSTONE_pc119
100
AcDbLine
10
1.0895
20
14.26418
30
0.0
11
1.1474
21
14.23491
31
0.0
0
LINE
100
AcDbEntity
62
7
8
HANDALSTONE_pc119
100
AcDbLine
10
1.1474
20
14.23491
30
0.0
11
1.2041
21
14.20409
31
0.0
0
LINE
100
AcDbEntity
62
7
8
HANDALSTONE_pc119
100
AcDbLine
10
1.2041
20
14.20409
30
0.0
11
1.2596
21
14.17172
31
0.0
0
LINE
100
AcDbEntity
62
7
8
HANDALSTONE_pc119
100
AcDbLine
10
1.2596
20
14.17172
30
0.0
11
1.3139
21
14.13783
31
0.0
0
LINE
100
AcDbEntity
62
7
8
HANDALSTONE_pc119
100
AcDbLine
10
1.3139
20
14.13783
30
0.0
11
1.367
21
14.10245
31
0.0
0
LINE
100
AcDbEntity
62
7
8
HANDALSTONE_pc119
100
AcDbLine
10
1.367
20
14.10245
30
0.0
11
1.4189
21
14.06558
31
0.0
0
LINE
100
AcDbEntity
62
7
8
HANDALSTONE_pc119
100
AcDbLine
10
1.4189
20
14.06558
30
0.0
11
1.4695
21
14.02728
31
0.0
0
LINE
100
AcDbEntity
62
7
8
HANDALSTONE_pc119
100
AcDbLine
10
1.4695
20
14.02728
30
0.0
11
1.519
21
13.98755
31
0.0
0
LINE
100
AcDbEntity
62
7
8
HANDALSTONE_pc119
100
AcDbLine
10
1.519
20
13.98755
30
0.0
11
1.5673
21
13.94641
31
0.0
0
LINE
100
AcDbEntity
62
7
8
HANDALSTONE_pc119
100
AcDbLine
10
1.5673
20
13.94641
30
0.0
11
1.6143
21
13.9039
31
0.0
0
LINE
100
AcDbEntity
62
7
8
HANDALSTONE_pc119
100
AcDbLine
10
1.6143
20
13.9039
30
0.0
11
1.6602
21
13.86003
31
0.0
0
LINE
100
AcDbEntity
62
7
8
HANDALSTONE_pc119
100
AcDbLine
10
1.6602
20
13.86003
30
0.0
11
1.7048
21
13.81482
31
0.0
0
LINE
100
AcDbEntity
62
7
8
HANDALSTONE_pc119
100
AcDbLine
10
1.7048
20
13.81482
30
0.0
11
1.7482
21
13.76831
31
0.0
0
LINE
100
AcDbEntity
62
7
8
HANDALSTONE_pc119
100
AcDbLine
10
1.7482
20
13.76831
30
0.0
11
1.7904
21
13.72052
31
0.0
0
LINE
100
AcDbEntity
62
7
8
HANDALSTONE_pc119
100
AcDbLine
10
1.7904
20
13.72052
30
0.0
11
1.8314
21
13.67148
31
0.0
0
LINE
100
AcDbEntity
62
7
8
HANDALSTONE_pc119
100
AcDbLine
10
1.8314
20
13.67148
30
0.0
11
1.8712
21
13.62119
31
0.0
0
LINE
100
AcDbEntity
62
7
8
HANDALSTONE_pc119
100
AcDbLine
10
1.8712
20
13.62119
30
0.0
11
1.9098
21
13.56969
31
0.0
0
LINE
100
AcDbEntity
62
7
8
HANDALSTONE_pc119
100
AcDbLine
10
1.9098
20
13.56969
30
0.0
11
1.9472
21
13.51698
31
0.0
0
LINE
100
AcDbEntity
62
7
8
HANDALSTONE_pc119
100
AcDbLine
10
1.9472
20
13.51698
30
0.0
11
1.9833
21
13.46313
31
0.0
0
LINE
100
AcDbEntity
62
7
8
HANDALSTONE_pc119
100
AcDbLine
10
1.9833
20
13.46313
30
0.0
11
2.0182
21
13.40813
31
0.0
0
LINE
100
AcDbEntity
62
7
8
HANDALSTONE_pc119
100
AcDbLine
10
2.0182
20
13.40813
30
0.0
11
2.0519
21
13.35201
31
0.0
0
LINE
100
AcDbEntity
62
7
8
HANDALSTONE_pc119
100
AcDbLine
10
2.0519
20
13.35201
30
0.0
11
2.0844
21
13.2948
31
0.0
0
LINE
100
AcDbEntity
62
7
8
HANDALSTONE_pc119
100
AcDbLine
10
2.0844
20
13.2948
30
0.0
11
2.1157
21
13.23651
31
0.0
0
LINE
100
AcDbEntity
62
7
8
HANDALSTONE_pc119
100
AcDbLine
10
2.1157
20
13.23651
30
0.0
11
2.1458
21
13.17717
31
0.0
0
LINE
100
AcDbEntity
62
7
8
HANDALSTONE_pc119
100
AcDbLine
10
2.1458
20
13.17717
30
0.0
11
2.1746
21
13.11681
31
0.0
0
LINE
100
AcDbEntity
62
7
8
HANDALSTONE_pc119
100
AcDbLine
10
2.1746
20
13.11681
30
0.0
11
2.2023
21
13.05545
31
0.0
0
LINE
100
AcDbEntity
62
7
8
HANDALSTONE_pc119
100
AcDbLine
10
2.2023
20
13.05545
30
0.0
11
2.2287
21
12.99312
31
0.0
0
LINE
100
AcDbEntity
62
7
8
HANDALSTONE_pc119
100
AcDbLine
10
2.2287
20
12.99312
30
0.0
11
2.2538
21
12.92983
31
0.0
0
LINE
100
AcDbEntity
62
7
8
HANDALSTONE_pc119
100
AcDbLine
10
2.2538
20
12.92983
30
0.0
11
2.2778
21
12.8656
31
0.0
0
LINE
100
AcDbEntity
62
7
8
HANDALSTONE_pc119
100
AcDbLine
10
2.2778
20
12.8656
30
0.0
11
2.3005
21
12.80048
31
0.0
0
LINE
100
AcDbEntity
62
7
8
HANDALSTONE_pc119
100
AcDbLine
10
2.3005
20
12.80048
30
0.0
11
2.3221
21
12.73445
31
0.0
0
LINE
100
AcDbEntity
62
7
8
HANDALSTONE_pc119
100
AcDbLine
10
2.3221
20
12.73445
30
0.0
11
2.3423
21
12.66759
31
0.0
0
LINE
100
AcDbEntity
62
7
8
HANDALSTONE_pc119
100
AcDbLine
10
2.3423
20
12.66759
30
0.0
11
2.3614
21
12.59987
31
0.0
0
LINE
100
AcDbEntity
62
7
8
HANDALSTONE_pc119
100
AcDbLine
10
2.3614
20
12.59987
30
0.0
11
2.3792
21
12.53136
31
0.0
0
LINE
100
AcDbEntity
62
7
8
HANDALSTONE_pc119
100
AcDbLine
10
2.3792
20
12.53136
30
0.0
11
2.3959
21
12.46205
31
0.0
0
LINE
100
AcDbEntity
62
7
8
HANDALSTONE_pc119
100
AcDbLine
10
2.3959
20
12.46205
30
0.0
11
2.4113
21
12.39197
31
0.0
0
LINE
100
AcDbEntity
62
7
8
HANDALSTONE_pc119
100
AcDbLine
10
2.4113
20
12.39197
30
0.0
11
2.4254
21
12.32115
31
0.0
0
LINE
100
AcDbEntity
62
7
8
HANDALSTONE_pc119
100
AcDbLine
10
2.4254
20
12.32115
30
0.0
11
2.4384
21
12.24963
31
0.0
0
LINE
100
AcDbEntity
62
7
8
HANDALSTONE_pc119
100
AcDbLine
10
2.4384
20
12.24963
30
0.0
11
2.4501
21
12.1774
31
0.0
0
LINE
100
AcDbEntity
62
7
8
HANDALSTONE_pc119
100
AcDbLine
10
2.4501
20
12.1774
30
0.0
11
2.4605
21
12.10451
31
0.0
0
LINE
100
AcDbEntity
62
7
8
HANDALSTONE_pc119
100
AcDbLine
10
2.4605
20
12.10451
30
0.0
11
2.4698
21
12.03096
31
0.0
0
LINE
100
AcDbEntity
62
7
8
HANDALSTONE_pc119
100
AcDbLine
10
2.4698
20
12.03096
30
0.0
11
2.4778
21
11.95679
31
0.0
0
LINE
100
AcDbEntity
62
7
8
HANDALSTONE_pc119
100
AcDbLine
10
2.4778
20
11.95679
30
0.0
11
2.4846
21
11.88202
31
0.0
0
LINE
100
AcDbEntity
62
7
8
HANDALSTONE_pc119
100
AcDbLine
10
2.4846
20
11.88202
30
0.0
11
2.4901
21
11.80667
31
0.0
0
LINE
100
AcDbEntity
62
7
8
HANDALSTONE_pc119
100
AcDbLine
10
2.4901
20
11.80667
30
0.0
11
2.4944
21
11.73076
31
0.0
0
LINE
100
AcDbEntity
62
7
8
HANDALSTONE_pc119
100
AcDbLine
10
2.4944
20
11.73076
30
0.0
11
2.4975
21
11.65433
31
0.0
0
TEXT
100
AcDbEntity
8
HANDALSTONE_pc119
100
AcDbText
10
0
20
-3
30
0
1
PC119 Front
40
2
0
TEXT
100
AcDbEntity
8
HANDALSTONE_pc119
100
AcDbText
10
0
20
-5.25
30
0
1
(53" x 24.5")
40
1.5
0
LINE
100
AcDbEntity
62
7
8
HANDALSTONE_pc119
100
AcDbLine
10
84.516
20
11.49995
30
0.0
11
84.516
21
0.00001
31
0.0
0
LINE
100
AcDbEntity
62
7
8
HANDALSTONE_pc119
100
AcDbLine
10
106.6654
20
0.276
30
0.0
11
106.6654
21
0
31
0.0
0
LINE
100
AcDbEntity
62
7
8
HANDALSTONE_pc119
100
AcDbLine
10
58
20
17.49998
30
0.0
11
111
21
17.49998
31
0.0
0
LINE
100
AcDbEntity
62
7
8
HANDALSTONE_pc119
100
AcDbLine
10
63.1763
20
5.89925
30
0.0
11
63.83459
21
5.89925
31
0.0
0
LINE
100
AcDbEntity
62
7
8
HANDALSTONE_pc119
100
AcDbLine
10
84.516
20
9.29955
30
0.0
11
105.1334
21
9.29955
31
0.0
0
LINE
100
AcDbEntity
62
7
8
HANDALSTONE_pc119
100
AcDbLine
10
63.8666
20
0.276
30
0.0
11
84.484
21
0.276
31
0.0
0
LINE
100
AcDbEntity
62
7
8
HANDALSTONE_pc119
100
AcDbLine
10
105.1654
20
11.35671
30
0.0
11
106.59701
21
11.35671
31
0.0
0
LINE
100
AcDbEntity
62
7
8
HANDALSTONE_pc119
100
AcDbLine
10
63.8666
20
2.1057
30
0.0
11
84.484
21
2.1057
31
0.0
0
LINE
100
AcDbEntity
62
7
8
HANDALSTONE_pc119
100
AcDbLine
10
84.516
20
11.35671
30
0.0
11
105.1334
21
11.35671
31
0.0
0
LINE
100
AcDbEntity
62
7
8
HANDALSTONE_pc119
100
AcDbLine
10
63.8667
20
11.49998
30
0.0
11
105.13331
21
11.49998
31
0.0
0
LINE
100
AcDbEntity
62
7
8
HANDALSTONE_pc119
100
AcDbLine
10
63.8666
20
9.29955
30
0.0
11
84.48399
21
9.29955
31
0.0
0
LINE
100
AcDbEntity
62
7
8
HANDALSTONE_pc119
100
AcDbLine
10
58.0772
20
14.49998
30
0.0
11
110.92281
21
14.49998
31
0.0
0
LINE
100
AcDbEntity
62
7
8
HANDALSTONE_pc119
100
AcDbLine
10
84.516
20
7.57111
30
0.0
11
105.1334
21
7.57111
31
0.0
0
LINE
100
AcDbEntity
62
7
8
HANDALSTONE_pc119
100
AcDbLine
10
105.1654
20
9.78036
30
0.0
11
107.89231
21
9.78036
31
0.0
0
LINE
100
AcDbEntity
62
7
8
HANDALSTONE_pc119
100
AcDbLine
10
63.8666
20
9.78036
30
0.0
11
84.48399
21
9.78036
31
0.0
0
LINE
100
AcDbEntity
62
7
8
HANDALSTONE_pc119
100
AcDbLine
10
62.403
20
11.35671
30
0.0
11
63.83459
21
11.35671
31
0.0
0
LINE
100
AcDbEntity
62
7
8
HANDALSTONE_pc119
100
AcDbLine
10
63.8666
20
11.35671
30
0.0
11
84.48399
21
11.35671
31
0.0
0
LINE
100
AcDbEntity
62
7
8
HANDALSTONE_pc119
100
AcDbLine
10
63.1763
20
7.00588
30
0.0
11
63.83459
21
7.00588
31
0.0
0
LINE
100
AcDbEntity
62
7
8
HANDALSTONE_pc119
100
AcDbLine
10
84.516
20
0.276
30
0.0
11
105.1334
21
0.276
31
0.0
0
LINE
100
AcDbEntity
62
7
8
HANDALSTONE_pc119
100
AcDbLine
10
61.3901
20
9.44199
30
0.0
11
63.8346
21
9.44199
31
0.0
0
LINE
100
AcDbEntity
62
7
8
HANDALSTONE_pc119
100
AcDbLine
10
105.1654
20
1.7924
30
0.0
11
106.6798
21
1.7924
31
0.0
0
LINE
100
AcDbEntity
62
7
8
HANDALSTONE_pc119
100
AcDbLine
10
84.516
20
9.78036
30
0.0
11
105.1334
21
9.78036
31
0.0
0
LINE
100
AcDbEntity
62
7
8
HANDALSTONE_pc119
100
AcDbLine
10
61.1077
20
9.78036
30
0.0
11
63.83459
21
9.78036
31
0.0
0
LINE
100
AcDbEntity
62
7
8
HANDALSTONE_pc119
100
AcDbLine
10
84.516
20
7.00588
30
0.0
11
105.1334
21
7.00588
31
0.0
0
LINE
100
AcDbEntity
62
7
8
HANDALSTONE_pc119
100
AcDbLine
10
63.8666
20
7.00588
30
0.0
11
84.484
21
7.00588
31
0.0
0
LINE
100
AcDbEntity
62
7
8
HANDALSTONE_pc119
100
AcDbLine
10
105.1654
20
0.276
30
0.0
11
106.6654
21
0.276
31
0.0
0
LINE
100
AcDbEntity
62
7
8
HANDALSTONE_pc119
100
AcDbLine
10
105.1654
20
5.89925
30
0.0
11
105.82371
21
5.89925
31
0.0
0
LINE
100
AcDbEntity
62
7
8
HANDALSTONE_pc119
100
AcDbLine
10
62.3346
20
0.276
30
0.0
11
63.8346
21
0.276
31
0.0
0
LINE
100
AcDbEntity
62
7
8
HANDALSTONE_pc119
100
AcDbLine
10
62.3202
20
1.7924
30
0.0
11
63.8346
21
1.7924
31
0.0
0
LINE
100
AcDbEntity
62
7
8
HANDALSTONE_pc119
100
AcDbLine
10
62.3815
20
2.1057
30
0.0
11
63.8346
21
2.1057
31
0.0
0
LINE
100
AcDbEntity
62
7
8
HANDALSTONE_pc119
100
AcDbLine
10
62.7788
20
7.57111
30
0.0
11
63.8346
21
7.57111
31
0.0
0
LINE
100
AcDbEntity
62
7
8
HANDALSTONE_pc119
100
AcDbLine
10
61.4468
20
9.29955
30
0.0
11
63.8346
21
9.29955
31
0.0
0
LINE
100
AcDbEntity
62
7
8
HANDALSTONE_pc119
100
AcDbLine
10
63.8666
20
1.7924
30
0.0
11
84.484
21
1.7924
31
0.0
0
LINE
100
AcDbEntity
62
7
8
HANDALSTONE_pc119
100
AcDbLine
10
63.8666
20
5.89925
30
0.0
11
84.48399
21
5.89925
31
0.0
0
LINE
100
AcDbEntity
62
7
8
HANDALSTONE_pc119
100
AcDbLine
10
63.8666
20
7.57111
30
0.0
11
84.484
21
7.57111
31
0.0
0
LINE
100
AcDbEntity
62
7
8
HANDALSTONE_pc119
100
AcDbLine
10
63.8666
20
9.44199
30
0.0
11
84.48399
21
9.44199
31
0.0
0
LINE
100
AcDbEntity
62
7
8
HANDALSTONE_pc119
100
AcDbLine
10
84.516
20
1.7924
30
0.0
11
105.1334
21
1.7924
31
0.0
0
LINE
100
AcDbEntity
62
7
8
HANDALSTONE_pc119
100
AcDbLine
10
84.516
20
2.1057
30
0.0
11
105.1334
21
2.1057
31
0.0
0
LINE
100
AcDbEntity
62
7
8
HANDALSTONE_pc119
100
AcDbLine
10
84.516
20
5.89925
30
0.0
11
105.1334
21
5.89925
31
0.0
0
LINE
100
AcDbEntity
62
7
8
HANDALSTONE_pc119
100
AcDbLine
10
84.516
20
9.44199
30
0.0
11
105.1334
21
9.44199
31
0.0
0
LINE
100
AcDbEntity
62
7
8
HANDALSTONE_pc119
100
AcDbLine
10
105.1654
20
7.00588
30
0.0
11
105.82371
21
7.00588
31
0.0
0
LINE
100
AcDbEntity
62
7
8
HANDALSTONE_pc119
100
AcDbLine
10
105.1654
20
7.57111
30
0.0
11
106.2212
21
7.57111
31
0.0
0
LINE
100
AcDbEntity
62
7
8
HANDALSTONE_pc119
100
AcDbLine
10
105.1654
20
2.1057
30
0.0
11
106.61851
21
2.1057
31
0.0
0
LINE
100
AcDbEntity
62
7
8
HANDALSTONE_pc119
100
AcDbLine
10
105.1654
20
9.44199
30
0.0
11
107.6099
21
9.44199
31
0.0
0
LINE
100
AcDbEntity
62
7
8
HANDALSTONE_pc119
100
AcDbLine
10
105.1654
20
9.29955
30
0.0
11
107.55321
21
9.29955
31
0.0
0
LINE
100
AcDbEntity
62
7
8
HANDALSTONE_pc119
100
AcDbLine
10
58.1529
20
14.49607
30
0.0
11
58.2275
21
14.49124
31
0.0
0
LINE
100
AcDbEntity
62
7
8
HANDALSTONE_pc119
100
AcDbLine
10
58.2276
20
14.49123
30
0.0
11
58.3011
21
14.48448
31
0.0
0
LINE
100
AcDbEntity
62
7
8
HANDALSTONE_pc119
100
AcDbLine
10
58.3011
20
14.48448
30
0.0
11
58.3734
21
14.47586
31
0.0
0
LINE
100
AcDbEntity
62
7
8
HANDALSTONE_pc119
100
AcDbLine
10
58.3734
20
14.47586
30
0.0
11
58.4444
21
14.46539
31
0.0
0
LINE
100
AcDbEntity
62
7
8
HANDALSTONE_pc119
100
AcDbLine
10
58.4444
20
14.46539
30
0.0
11
58.5143
21
14.45311
31
0.0
0
LINE
100
AcDbEntity
62
7
8
HANDALSTONE_pc119
100
AcDbLine
10
58.5143
20
14.45311
30
0.0
11
58.583
21
14.43901
31
0.0
0
LINE
100
AcDbEntity
62
7
8
HANDALSTONE_pc119
100
AcDbLine
10
58.583
20
14.43901
30
0.0
11
58.6505
21
14.42314
31
0.0
0
LINE
100
AcDbEntity
62
7
8
HANDALSTONE_pc119
100
AcDbLine
10
58.6505
20
14.42314
30
0.0
11
58.7169
21
14.4055
31
0.0
0
LINE
100
AcDbEntity
62
7
8
HANDALSTONE_pc119
100
AcDbLine
10
58.7169
20
14.4055
30
0.0
11
58.782
21
14.38614
31
0.0
0
LINE
100
AcDbEntity
62
7
8
HANDALSTONE_pc119
100
AcDbLine
10
58.782
20
14.38614
30
0.0
11
58.8459
21
14.36507
31
0.0
0
LINE
100
AcDbEntity
62
7
8
HANDALSTONE_pc119
100
AcDbLine
10
58.8459
20
14.36507
30
0.0
11
58.9086
21
14.34232
31
0.0
0
LINE
100
AcDbEntity
62
7
8
HANDALSTONE_pc119
100
AcDbLine
10
58.9086
20
14.34232
30
0.0
11
58.9701
21
14.3179
31
0.0
0
LINE
100
AcDbEntity
62
7
8
HANDALSTONE_pc119
100
AcDbLine
10
58.9701
20
14.3179
30
0.0
11
59.0304
21
14.29184
31
0.0
0
LINE
100
AcDbEntity
62
7
8
HANDALSTONE_pc119
100
AcDbLine
10
59.0304
20
14.29184
30
0.0
11
59.0895
21
14.26418
31
0.0
0
LINE
100
AcDbEntity
62
7
8
HANDALSTONE_pc119
100
AcDbLine
10
59.0895
20
14.26418
30
0.0
11
59.1474
21
14.23491
31
0.0
0
LINE
100
AcDbEntity
62
7
8
HANDALSTONE_pc119
100
AcDbLine
10
59.1474
20
14.23491
30
0.0
11
59.2041
21
14.20409
31
0.0
0
LINE
100
AcDbEntity
62
7
8
HANDALSTONE_pc119
100
AcDbLine
10
59.2041
20
14.20409
30
0.0
11
59.2596
21
14.17172
31
0.0
0
LINE
100
AcDbEntity
62
7
8
HANDALSTONE_pc119
100
AcDbLine
10
59.2596
20
14.17172
30
0.0
11
59.3139
21
14.13783
31
0.0
0
LINE
100
AcDbEntity
62
7
8
HANDALSTONE_pc119
100
AcDbLine
10
59.3139
20
14.13783
30
0.0
11
59.367
21
14.10245
31
0.0
0
LINE
100
AcDbEntity
62
7
8
HANDALSTONE_pc119
100
AcDbLine
10
59.367
20
14.10245
30
0.0
11
59.4189
21
14.06558
31
0.0
0
LINE
100
AcDbEntity
62
7
8
HANDALSTONE_pc119
100
AcDbLine
10
59.4189
20
14.06558
30
0.0
11
59.4695
21
14.02728
31
0.0
0
LINE
100
AcDbEntity
62
7
8
HANDALSTONE_pc119
100
AcDbLine
10
59.4695
20
14.02728
30
0.0
11
59.519
21
13.98755
31
0.0
0
LINE
100
AcDbEntity
62
7
8
HANDALSTONE_pc119
100
AcDbLine
10
59.519
20
13.98755
30
0.0
11
59.5673
21
13.94641
31
0.0
0
LINE
100
AcDbEntity
62
7
8
HANDALSTONE_pc119
100
AcDbLine
10
59.5673
20
13.94641
30
0.0
11
59.6143
21
13.9039
31
0.0
0
LINE
100
AcDbEntity
62
7
8
HANDALSTONE_pc119
100
AcDbLine
10
59.6143
20
13.9039
30
0.0
11
59.6602
21
13.86003
31
0.0
0
LINE
100
AcDbEntity
62
7
8
HANDALSTONE_pc119
100
AcDbLine
10
59.6602
20
13.86003
30
0.0
11
59.7048
21
13.81482
31
0.0
0
LINE
100
AcDbEntity
62
7
8
HANDALSTONE_pc119
100
AcDbLine
10
59.7048
20
13.81482
30
0.0
11
59.7482
21
13.76831
31
0.0
0
LINE
100
AcDbEntity
62
7
8
HANDALSTONE_pc119
100
AcDbLine
10
59.7482
20
13.76831
30
0.0
11
59.7904
21
13.72052
31
0.0
0
LINE
100
AcDbEntity
62
7
8
HANDALSTONE_pc119
100
AcDbLine
10
59.7904
20
13.72052
30
0.0
11
59.8314
21
13.67148
31
0.0
0
LINE
100
AcDbEntity
62
7
8
HANDALSTONE_pc119
100
AcDbLine
10
59.8314
20
13.67148
30
0.0
11
59.8712
21
13.62119
31
0.0
0
LINE
100
AcDbEntity
62
7
8
HANDALSTONE_pc119
100
AcDbLine
10
59.8712
20
13.62119
30
0.0
11
59.9098
21
13.56969
31
0.0
0
LINE
100
AcDbEntity
62
7
8
HANDALSTONE_pc119
100
AcDbLine
10
59.9098
20
13.56969
30
0.0
11
59.9472
21
13.51698
31
0.0
0
LINE
100
AcDbEntity
62
7
8
HANDALSTONE_pc119
100
AcDbLine
10
59.9472
20
13.51698
30
0.0
11
59.9833
21
13.46313
31
0.0
0
LINE
100
AcDbEntity
62
7
8
HANDALSTONE_pc119
100
AcDbLine
10
59.9833
20
13.46313
30
0.0
11
60.0182
21
13.40813
31
0.0
0
LINE
100
AcDbEntity
62
7
8
HANDALSTONE_pc119
100
AcDbLine
10
60.0182
20
13.40813
30
0.0
11
60.0519
21
13.35201
31
0.0
0
LINE
100
AcDbEntity
62
7
8
HANDALSTONE_pc119
100
AcDbLine
10
60.0519
20
13.35201
30
0.0
11
60.0844
21
13.2948
31
0.0
0
LINE
100
AcDbEntity
62
7
8
HANDALSTONE_pc119
100
AcDbLine
10
60.0844
20
13.2948
30
0.0
11
60.1157
21
13.23651
31
0.0
0
LINE
100
AcDbEntity
62
7
8
HANDALSTONE_pc119
100
AcDbLine
10
60.1157
20
13.23651
30
0.0
11
60.1458
21
13.17717
31
0.0
0
LINE
100
AcDbEntity
62
7
8
HANDALSTONE_pc119
100
AcDbLine
10
60.1458
20
13.17717
30
0.0
11
60.1746
21
13.11681
31
0.0
0
LINE
100
AcDbEntity
62
7
8
HANDALSTONE_pc119
100
AcDbLine
10
60.1746
20
13.11681
30
0.0
11
60.2023
21
13.05545
31
0.0
0
LINE
100
AcDbEntity
62
7
8
HANDALSTONE_pc119
100
AcDbLine
10
60.2023
20
13.05545
30
0.0
11
60.2287
21
12.99312
31
0.0
0
LINE
100
AcDbEntity
62
7
8
HANDALSTONE_pc119
100
AcDbLine
10
60.2287
20
12.99312
30
0.0
11
60.2538
21
12.92983
31
0.0
0
LINE
100
AcDbEntity
62
7
8
HANDALSTONE_pc119
100
AcDbLine
10
60.2538
20
12.92983
30
0.0
11
60.2778
21
12.8656
31
0.0
0
LINE
100
AcDbEntity
62
7
8
HANDALSTONE_pc119
100
AcDbLine
10
60.2778
20
12.8656
30
0.0
11
60.3005
21
12.80048
31
0.0
0
LINE
100
AcDbEntity
62
7
8
HANDALSTONE_pc119
100
AcDbLine
10
60.3005
20
12.80048
30
0.0
11
60.3221
21
12.73445
31
0.0
0
LINE
100
AcDbEntity
62
7
8
HANDALSTONE_pc119
100
AcDbLine
10
60.3221
20
12.73445
30
0.0
11
60.3423
21
12.66759
31
0.0
0
LINE
100
AcDbEntity
62
7
8
HANDALSTONE_pc119
100
AcDbLine
10
60.3423
20
12.66759
30
0.0
11
60.3614
21
12.59987
31
0.0
0
LINE
100
AcDbEntity
62
7
8
HANDALSTONE_pc119
100
AcDbLine
10
60.3614
20
12.59987
30
0.0
11
60.3792
21
12.53136
31
0.0
0
LINE
100
AcDbEntity
62
7
8
HANDALSTONE_pc119
100
AcDbLine
10
60.3792
20
12.53136
30
0.0
11
60.3959
21
12.46205
31
0.0
0
LINE
100
AcDbEntity
62
7
8
HANDALSTONE_pc119
100
AcDbLine
10
60.3959
20
12.46205
30
0.0
11
60.4113
21
12.39197
31
0.0
0
LINE
100
AcDbEntity
62
7
8
HANDALSTONE_pc119
100
AcDbLine
10
60.4113
20
12.39197
30
0.0
11
60.4254
21
12.32115
31
0.0
0
LINE
100
AcDbEntity
62
7
8
HANDALSTONE_pc119
100
AcDbLine
10
60.4254
20
12.32115
30
0.0
11
60.4384
21
12.24963
31
0.0
0
LINE
100
AcDbEntity
62
7
8
HANDALSTONE_pc119
100
AcDbLine
10
60.4384
20
12.24963
30
0.0
11
60.4501
21
12.1774
31
0.0
0
LINE
100
AcDbEntity
62
7
8
HANDALSTONE_pc119
100
AcDbLine
10
60.4501
20
12.1774
30
0.0
11
60.4605
21
12.10451
31
0.0
0
LINE
100
AcDbEntity
62
7
8
HANDALSTONE_pc119
100
AcDbLine
10
60.4605
20
12.10451
30
0.0
11
60.4698
21
12.03096
31
0.0
0
LINE
100
AcDbEntity
62
7
8
HANDALSTONE_pc119
100
AcDbLine
10
60.4698
20
12.03096
30
0.0
11
60.4778
21
11.95679
31
0.0
0
LINE
100
AcDbEntity
62
7
8
HANDALSTONE_pc119
100
AcDbLine
10
60.4778
20
11.95679
30
0.0
11
60.4846
21
11.88202
31
0.0
0
LINE
100
AcDbEntity
62
7
8
HANDALSTONE_pc119
100
AcDbLine
10
60.4846
20
11.88202
30
0.0
11
60.4901
21
11.80667
31
0.0
0
LINE
100
AcDbEntity
62
7
8
HANDALSTONE_pc119
100
AcDbLine
10
60.4901
20
11.80667
30
0.0
11
60.4944
21
11.73076
31
0.0
0
LINE
100
AcDbEntity
62
7
8
HANDALSTONE_pc119
100
AcDbLine
10
60.4944
20
11.73076
30
0.0
11
60.4975
21
11.65433
31
0.0
0
LINE
100
AcDbEntity
62
7
8
HANDALSTONE_pc119
100
AcDbLine
10
60.4975
20
11.65433
30
0.0
11
60.4994
21
11.57739
31
0.0
0
LINE
100
AcDbEntity
62
7
8
HANDALSTONE_pc119
100
AcDbLine
10
60.4994
20
11.57739
30
0.0
11
60.5
21
11.49998
31
0.0
0
LINE
100
AcDbEntity
62
7
8
HANDALSTONE_pc119
100
AcDbLine
10
60.5
20
11.49998
30
0.0
11
63.8666
21
11.49998
31
0.0
0
LINE
100
AcDbEntity
62
7
8
HANDALSTONE_pc119
100
AcDbLine
10
63.8666
20
11.49998
30
0.0
11
63.8666
21
0
31
0.0
0
LINE
100
AcDbEntity
62
7
8
HANDALSTONE_pc119
100
AcDbLine
10
63.8666
20
0
30
0.0
11
105.13341
21
0
31
0.0
0
LINE
100
AcDbEntity
62
7
8
HANDALSTONE_pc119
100
AcDbLine
10
105.13341
20
0
30
0.0
11
105.13341
21
11.49998
31
0.0
0
LINE
100
AcDbEntity
62
7
8
HANDALSTONE_pc119
100
AcDbLine
10
105.13341
20
11.49998
30
0.0
11
108.50001
21
11.49998
31
0.0
0
LINE
100
AcDbEntity
62
7
8
HANDALSTONE_pc119
100
AcDbLine
10
108.50001
20
11.49998
30
0.0
11
108.50061
21
11.57739
31
0.0
0
LINE
100
AcDbEntity
62
7
8
HANDALSTONE_pc119
100
AcDbLine
10
108.50061
20
11.57739
30
0.0
11
108.50251
21
11.65433
31
0.0
0
LINE
100
AcDbEntity
62
7
8
HANDALSTONE_pc119
100
AcDbLine
10
108.50251
20
11.65433
30
0.0
11
108.50561
21
11.73076
31
0.0
0
LINE
100
AcDbEntity
62
7
8
HANDALSTONE_pc119
100
AcDbLine
10
108.50561
20
11.73076
30
0.0
11
108.50991
21
11.80667
31
0.0
0
LINE
100
AcDbEntity
62
7
8
HANDALSTONE_pc119
100
AcDbLine
10
108.50991
20
11.80667
30
0.0
11
108.51541
21
11.88202
31
0.0
0
LINE
100
AcDbEntity
62
7
8
HANDALSTONE_pc119
100
AcDbLine
10
108.51541
20
11.88202
30
0.0
11
108.52221
21
11.95679
31
0.0
0
LINE
100
AcDbEntity
62
7
8
HANDALSTONE_pc119
100
AcDbLine
10
108.52221
20
11.95679
30
0.0
11
108.53021
21
12.03096
31
0.0
0
LINE
100
AcDbEntity
62
7
8
HANDALSTONE_pc119
100
AcDbLine
10
108.53021
20
12.03096
30
0.0
11
108.53951
21
12.10451
31
0.0
0
LINE
100
AcDbEntity
62
7
8
HANDALSTONE_pc119
100
AcDbLine
10
108.53951
20
12.10451
30
0.0
11
108.54991
21
12.1774
31
0.0
0
LINE
100
AcDbEntity
62
7
8
HANDALSTONE_pc119
100
AcDbLine
10
108.54991
20
12.1774
30
0.0
11
108.56161
21
12.24963
31
0.0
0
LINE
100
AcDbEntity
62
7
8
HANDALSTONE_pc119
100
AcDbLine
10
108.56161
20
12.24963
30
0.0
11
108.57461
21
12.32115
31
0.0
0
LINE
100
AcDbEntity
62
7
8
HANDALSTONE_pc119
100
AcDbLine
10
108.57461
20
12.32115
30
0.0
11
108.58871
21
12.39197
31
0.0
0
LINE
100
AcDbEntity
62
7
8
HANDALSTONE_pc119
100
AcDbLine
10
108.58871
20
12.39197
30
0.0
11
108.60411
21
12.46205
31
0.0
0
LINE
100
AcDbEntity
62
7
8
HANDALSTONE_pc119
100
AcDbLine
10
108.60411
20
12.46205
30
0.0
11
108.62081
21
12.53136
31
0.0
0
LINE
100
AcDbEntity
62
7
8
HANDALSTONE_pc119
100
AcDbLine
10
108.62081
20
12.53136
30
0.0
11
108.63861
21
12.59987
31
0.0
0
LINE
100
AcDbEntity
62
7
8
HANDALSTONE_pc119
100
AcDbLine
10
108.63861
20
12.59987
30
0.0
11
108.65771
21
12.66759
31
0.0
0
LINE
100
AcDbEntity
62
7
8
HANDALSTONE_pc119
100
AcDbLine
10
108.65771
20
12.66759
30
0.0
11
108.67791
21
12.73445
31
0.0
0
LINE
100
AcDbEntity
62
7
8
HANDALSTONE_pc119
100
AcDbLine
10
108.67791
20
12.73445
30
0.0
11
108.69951
21
12.80048
31
0.0
0
LINE
100
AcDbEntity
62
7
8
HANDALSTONE_pc119
100
AcDbLine
10
108.69951
20
12.80048
30
0.0
11
108.72221
21
12.8656
31
0.0
0
LINE
100
AcDbEntity
62
7
8
HANDALSTONE_pc119
100
AcDbLine
10
108.72221
20
12.8656
30
0.0
11
108.74621
21
12.92983
31
0.0
0
LINE
100
AcDbEntity
62
7
8
HANDALSTONE_pc119
100
AcDbLine
10
108.74621
20
12.92983
30
0.0
11
108.77131
21
12.99312
31
0.0
0
LINE
100
AcDbEntity
62
7
8
HANDALSTONE_pc119
100
AcDbLine
10
108.77131
20
12.99312
30
0.0
11
108.79771
21
13.05545
31
0.0
0
LINE
100
AcDbEntity
62
7
8
HANDALSTONE_pc119
100
AcDbLine
10
108.79771
20
13.05545
30
0.0
11
108.82541
21
13.11681
31
0.0
0
LINE
100
AcDbEntity
62
7
8
HANDALSTONE_pc119
100
AcDbLine
10
108.82541
20
13.11681
30
0.0
11
108.85421
21
13.17717
31
0.0
0
LINE
100
AcDbEntity
62
7
8
HANDALSTONE_pc119
100
AcDbLine
10
108.85421
20
13.17717
30
0.0
11
108.88431
21
13.23651
31
0.0
0
LINE
100
AcDbEntity
62
7
8
HANDALSTONE_pc119
100
AcDbLine
10
108.88431
20
13.23651
30
0.0
11
108.91561
21
13.2948
31
0.0
0
LINE
100
AcDbEntity
62
7
8
HANDALSTONE_pc119
100
AcDbLine
10
108.91561
20
13.2948
30
0.0
11
108.94811
21
13.35201
31
0.0
0
LINE
100
AcDbEntity
62
7
8
HANDALSTONE_pc119
100
AcDbLine
10
108.94811
20
13.35201
30
0.0
11
108.98181
21
13.40813
31
0.0
0
LINE
100
AcDbEntity
62
7
8
HANDALSTONE_pc119
100
AcDbLine
10
108.98181
20
13.40813
30
0.0
11
109.01671
21
13.46313
31
0.0
0
LINE
100
AcDbEntity
62
7
8
HANDALSTONE_pc119
100
AcDbLine
10
109.01671
20
13.46313
30
0.0
11
109.05281
21
13.51698
31
0.0
0
LINE
100
AcDbEntity
62
7
8
HANDALSTONE_pc119
100
AcDbLine
10
109.05281
20
13.51698
30
0.0
11
109.09021
21
13.56969
31
0.0
0
LINE
100
AcDbEntity
62
7
8
HANDALSTONE_pc119
100
AcDbLine
10
109.09021
20
13.56969
30
0.0
11
109.12881
21
13.62119
31
0.0
0
LINE
100
AcDbEntity
62
7
8
HANDALSTONE_pc119
100
AcDbLine
10
109.12881
20
13.62119
30
0.0
11
109.16861
21
13.67148
31
0.0
0
LINE
100
AcDbEntity
62
7
8
HANDALSTONE_pc119
100
AcDbLine
10
109.16861
20
13.67148
30
0.0
11
109.20961
21
13.72052
31
0.0
0
LINE
100
AcDbEntity
62
7
8
HANDALSTONE_pc119
100
AcDbLine
10
109.20961
20
13.72052
30
0.0
11
109.25181
21
13.76831
31
0.0
0
LINE
100
AcDbEntity
62
7
8
HANDALSTONE_pc119
100
AcDbLine
10
109.25181
20
13.76831
30
0.0
11
109.29521
21
13.81482
31
0.0
0
LINE
100
AcDbEntity
62
7
8
HANDALSTONE_pc119
100
AcDbLine
10
109.29521
20
13.81482
30
0.0
11
109.33981
21
13.86003
31
0.0
0
LINE
100
AcDbEntity
62
7
8
HANDALSTONE_pc119
100
AcDbLine
10
109.33981
20
13.86003
30
0.0
11
109.38571
21
13.9039
31
0.0
0
LINE
100
AcDbEntity
62
7
8
HANDALSTONE_pc119
100
AcDbLine
10
109.38571
20
13.9039
30
0.0
11
109.43271
21
13.94641
31
0.0
0
LINE
100
AcDbEntity
62
7
8
HANDALSTONE_pc119
100
AcDbLine
10
109.43271
20
13.94641
30
0.0
11
109.48101
21
13.98755
31
0.0
0
LINE
100
AcDbEntity
62
7
8
HANDALSTONE_pc119
100
AcDbLine
10
109.48101
20
13.98755
30
0.0
11
109.53051
21
14.02728
31
0.0
0
LINE
100
AcDbEntity
62
7
8
HANDALSTONE_pc119
100
AcDbLine
10
109.53051
20
14.02728
30
0.0
11
109.58111
21
14.06558
31
0.0
0
LINE
100
AcDbEntity
62
7
8
HANDALSTONE_pc119
100
AcDbLine
10
109.58111
20
14.06558
30
0.0
11
109.63301
21
14.10245
31
0.0
0
LINE
100
AcDbEntity
62
7
8
HANDALSTONE_pc119
100
AcDbLine
10
109.63301
20
14.10245
30
0.0
11
109.68611
21
14.13783
31
0.0
0
LINE
100
AcDbEntity
62
7
8
HANDALSTONE_pc119
100
AcDbLine
10
109.68611
20
14.13783
30
0.0
11
109.74041
21
14.17172
31
0.0
0
LINE
100
AcDbEntity
62
7
8
HANDALSTONE_pc119
100
AcDbLine
10
109.74041
20
14.17172
30
0.0
11
109.79591
21
14.20409
31
0.0
0
LINE
100
AcDbEntity
62
7
8
HANDALSTONE_pc119
100
AcDbLine
10
109.79591
20
14.20409
30
0.0
11
109.85261
21
14.23491
31
0.0
0
LINE
100
AcDbEntity
62
7
8
HANDALSTONE_pc119
100
AcDbLine
10
109.85261
20
14.23491
30
0.0
11
109.91051
21
14.26418
31
0.0
0
LINE
100
AcDbEntity
62
7
8
HANDALSTONE_pc119
100
AcDbLine
10
109.91051
20
14.26418
30
0.0
11
109.96961
21
14.29184
31
0.0
0
LINE
100
AcDbEntity
62
7
8
HANDALSTONE_pc119
100
AcDbLine
10
109.96961
20
14.29184
30
0.0
11
110.02991
21
14.3179
31
0.0
0
LINE
100
AcDbEntity
62
7
8
HANDALSTONE_pc119
100
AcDbLine
10
110.02991
20
14.3179
30
0.0
11
110.09141
21
14.34232
31
0.0
0
LINE
100
AcDbEntity
62
7
8
HANDALSTONE_pc119
100
AcDbLine
10
110.09141
20
14.34232
30
0.0
11
110.15411
21
14.36507
31
0.0
0
LINE
100
AcDbEntity
62
7
8
HANDALSTONE_pc119
100
AcDbLine
10
110.15411
20
14.36507
30
0.0
11
110.21801
21
14.38614
31
0.0
0
LINE
100
AcDbEntity
62
7
8
HANDALSTONE_pc119
100
AcDbLine
10
110.21801
20
14.38614
30
0.0
11
110.28311
21
14.4055
31
0.0
0
LINE
100
AcDbEntity
62
7
8
HANDALSTONE_pc119
100
AcDbLine
10
110.28311
20
14.4055
30
0.0
11
110.34951
21
14.42314
31
0.0
0
LINE
100
AcDbEntity
62
7
8
HANDALSTONE_pc119
100
AcDbLine
10
110.34951
20
14.42314
30
0.0
11
110.41701
21
14.43901
31
0.0
0
LINE
100
AcDbEntity
62
7
8
HANDALSTONE_pc119
100
AcDbLine
10
110.41701
20
14.43901
30
0.0
11
110.48571
21
14.45311
31
0.0
0
LINE
100
AcDbEntity
62
7
8
HANDALSTONE_pc119
100
AcDbLine
10
110.48571
20
14.45311
30
0.0
11
110.55561
21
14.46539
31
0.0
0
LINE
100
AcDbEntity
62
7
8
HANDALSTONE_pc119
100
AcDbLine
10
110.55561
20
14.46539
30
0.0
11
110.62661
21
14.47586
31
0.0
0
LINE
100
AcDbEntity
62
7
8
HANDALSTONE_pc119
100
AcDbLine
10
110.62661
20
14.47586
30
0.0
11
110.69891
21
14.48448
31
0.0
0
LINE
100
AcDbEntity
62
7
8
HANDALSTONE_pc119
100
AcDbLine
10
110.69891
20
14.48448
30
0.0
11
110.77241
21
14.49123
31
0.0
0
LINE
100
AcDbEntity
62
7
8
HANDALSTONE_pc119
100
AcDbLine
10
110.77241
20
14.49123
30
0.0
11
110.84711
21
14.49606
31
0.0
0
LINE
100
AcDbEntity
62
7
8
HANDALSTONE_pc119
100
AcDbLine
10
110.84711
20
14.49606
30
0.0
11
110.92291
21
14.49899
31
0.0
0
LINE
100
AcDbEntity
62
7
8
HANDALSTONE_pc119
100
AcDbLine
10
110.92291
20
14.49899
30
0.0
11
111.00001
21
14.49997
31
0.0
0
LINE
100
AcDbEntity
62
7
8
HANDALSTONE_pc119
100
AcDbLine
10
111.00001
20
14.49997
30
0.0
11
111.00001
21
17.49997
31
0.0
0
LINE
100
AcDbEntity
62
7
8
HANDALSTONE_pc119
100
AcDbLine
10
111.00001
20
17.49997
30
0.0
11
84.50001
21
24.5
31
0.0
0
LINE
100
AcDbEntity
62
7
8
HANDALSTONE_pc119
100
AcDbLine
10
84.50001
20
24.5
30
0.0
11
58
21
17.49997
31
0.0
0
LINE
100
AcDbEntity
62
7
8
HANDALSTONE_pc119
100
AcDbLine
10
58
20
17.49997
30
0.0
11
58
21
14.49997
31
0.0
0
LINE
100
AcDbEntity
62
7
8
HANDALSTONE_pc119
100
AcDbLine
10
58
20
14.49997
30
0.0
11
58.0771
21
14.49899
31
0.0
0
LINE
100
AcDbEntity
62
7
8
HANDALSTONE_pc119
100
AcDbLine
10
58.0771
20
14.49899
30
0.0
11
58.1529
21
14.49606
31
0.0
0
LINE
100
AcDbEntity
62
7
8
HANDALSTONE_pc119
100
AcDbLine
10
106.66541
20
0.276
30
0.0
11
106.70611
21
0.2794
31
0.0
0
LINE
100
AcDbEntity
62
7
8
HANDALSTONE_pc119
100
AcDbLine
10
106.70611
20
0.2794
30
0.0
11
106.74621
21
0.2845
31
0.0
0
LINE
100
AcDbEntity
62
7
8
HANDALSTONE_pc119
100
AcDbLine
10
106.74621
20
0.2845
30
0.0
11
106.78571
21
0.2913
31
0.0
0
LINE
100
AcDbEntity
62
7
8
HANDALSTONE_pc119
100
AcDbLine
10
106.78571
20
0.2913
30
0.0
11
106.82451
21
0.2997
31
0.0
0
LINE
100
AcDbEntity
62
7
8
HANDALSTONE_pc119
100
AcDbLine
10
106.82451
20
0.2997
30
0.0
11
106.86251
21
0.3098
31
0.0
0
LINE
100
AcDbEntity
62
7
8
HANDALSTONE_pc119
100
AcDbLine
10
106.86251
20
0.3098
30
0.0
11
106.89981
21
0.3214
31
0.0
0
LINE
100
AcDbEntity
62
7
8
HANDALSTONE_pc119
100
AcDbLine
10
106.89981
20
0.3214
30
0.0
11
106.93631
21
0.3345
31
0.0
0
LINE
100
AcDbEntity
62
7
8
HANDALSTONE_pc119
100
AcDbLine
10
106.93631
20
0.3345
30
0.0
11
106.97181
21
0.3491
31
0.0
0
LINE
100
AcDbEntity
62
7
8
HANDALSTONE_pc119
100
AcDbLine
10
106.97181
20
0.3491
30
0.0
11
107.00651
21
0.3651
31
0.0
0
LINE
100
AcDbEntity
62
7
8
HANDALSTONE_pc119
100
AcDbLine
10
107.00651
20
0.3651
30
0.0
11
107.04021
21
0.3825
31
0.0
0
LINE
100
AcDbEntity
62
7
8
HANDALSTONE_pc119
100
AcDbLine
10
107.04021
20
0.3825
30
0.0
11
107.07291
21
0.4012
31
0.0
0
LINE
100
AcDbEntity
62
7
8
HANDALSTONE_pc119
100
AcDbLine
10
107.07291
20
0.4012
30
0.0
11
107.10451
21
0.4213
31
0.0
0
LINE
100
AcDbEntity
62
7
8
HANDALSTONE_pc119
100
AcDbLine
10
107.10451
20
0.4213
30
0.0
11
107.13511
21
0.4426
31
0.0
0
LINE
100
AcDbEntity
62
7
8
HANDALSTONE_pc119
100
AcDbLine
10
107.13511
20
0.4426
30
0.0
11
107.16451
21
0.4652
31
0.0
0
LINE
100
AcDbEntity
62
7
8
HANDALSTONE_pc119
100
AcDbLine
10
107.16451
20
0.4652
30
0.0
11
107.19271
21
0.489
31
0.0
0
LINE
100
AcDbEntity
62
7
8
HANDALSTONE_pc119
100
AcDbLine
10
107.19271
20
0.489
30
0.0
11
107.21961
21
0.5139
31
0.0
0
LINE
100
AcDbEntity
62
7
8
HANDALSTONE_pc119
100
AcDbLine
10
107.21961
20
0.5139
30
0.0
11
107.24531
21
0.5399
31
0.0
0
LINE
100
AcDbEntity
62
7
8
HANDALSTONE_pc119
100
AcDbLine
10
107.24531
20
0.5399
30
0.0
11
107.26971
21
0.567
31
0.0
0
LINE
100
AcDbEntity
62
7
8
HANDALSTONE_pc119
100
AcDbLine
10
107.26971
20
0.567
30
0.0
11
107.29271
21
0.5951
31
0.0
0
LINE
100
AcDbEntity
62
7
8
HANDALSTONE_pc119
100
AcDbLine
10
107.29271
20
0.5951
30
0.0
11
107.31431
21
0.6242
31
0.0
0
LINE
100
AcDbEntity
62
7
8
HANDALSTONE_pc119
100
AcDbLine
10
107.31431
20
0.6242
30
0.0
11
107.33441
21
0.6542
31
0.0
0
LINE
100
AcDbEntity
62
7
8
HANDALSTONE_pc119
100
AcDbLine
10
107.33441
20
0.6542
30
0.0
11
107.35301
21
0.6851
31
0.0
0
LINE
100
AcDbEntity
62
7
8
HANDALSTONE_pc119
100
AcDbLine
10
107.35301
20
0.6851
30
0.0
11
107.37001
21
0.7169
31
0.0
0
LINE
100
AcDbEntity
62
7
8
HANDALSTONE_pc119
100
AcDbLine
10
107.37001
20
0.7169
30
0.0
11
107.38551
21
0.7495
31
0.0
0
LINE
100
AcDbEntity
62
7
8
HANDALSTONE_pc119
100
AcDbLine
10
107.38551
20
0.7495
30
0.0
11
107.39931
21
0.7829
31
0.0
0
LINE
100
AcDbEntity
62
7
8
HANDALSTONE_pc119
100
AcDbLine
10
107.39931
20
0.7829
30
0.0
11
107.41141
21
0.817
31
0.0
0
LINE
100
AcDbEntity
62
7
8
HANDALSTONE_pc119
100
AcDbLine
10
107.41141
20
0.817
30
0.0
11
107.42171
21
0.8518
31
0.0
0
LINE
100
AcDbEntity
62
7
8
HANDALSTONE_pc119
100
AcDbLine
10
107.42171
20
0.8518
30
0.0
11
107.43031
21
0.8873
31
0.0
0
LINE
100
AcDbEntity
62
7
8
HANDALSTONE_pc119
100
AcDbLine
10
107.43031
20
0.8873
30
0.0
11
107.43711
21
0.9234
31
0.0
0
LINE
100
AcDbEntity
62
7
8
HANDALSTONE_pc119
100
AcDbLine
10
107.43711
20
0.9234
30
0.0
11
107.44201
21
0.9601
31
0.0
0
LINE
100
AcDbEntity
62
7
8
HANDALSTONE_pc119
100
AcDbLine
10
107.44201
20
0.9601
30
0.0
11
107.44491
21
0.9973
31
0.0
0
LINE
100
AcDbEntity
62
7
8
HANDALSTONE_pc119
100
AcDbLine
10
107.44491
20
0.9973
30
0.0
11
107.44591
21
1.0349
31
0.0
0
LINE
100
AcDbEntity
62
7
8
HANDALSTONE_pc119
100
AcDbLine
10
107.44591
20
1.0349
30
0.0
11
107.44501
21
1.0722
31
0.0
0
LINE
100
AcDbEntity
62
7
8
HANDALSTONE_pc119
100
AcDbLine
10
107.44501
20
1.0722
30
0.0
11
107.44211
21
1.109
31
0.0
0
LINE
100
AcDbEntity
62
7
8
HANDALSTONE_pc119
100
AcDbLine
10
107.44211
20
1.109
30
0.0
11
107.43731
21
1.1453
31
0.0
0
LINE
100
AcDbEntity
62
7
8
HANDALSTONE_pc119
100
AcDbLine
10
107.43731
20
1.1453
30
0.0
11
107.43071
21
1.181
31
0.0
0
LINE
100
AcDbEntity
62
7
8
HANDALSTONE_pc119
100
AcDbLine
10
107.43071
20
1.181
30
0.0
11
107.42231
21
1.2161
31
0.0
0
LINE
100
AcDbEntity
62
7
8
HANDALSTONE_pc119
100
AcDbLine
10
107.42231
20
1.2161
30
0.0
11
107.41211
21
1.2505
31
0.0
0
LINE
100
AcDbEntity
62
7
8
HANDALSTONE_pc119
100
AcDbLine
10
107.41211
20
1.2505
30
0.0
11
107.40031
21
1.2843
31
0.0
0
LINE
100
AcDbEntity
62
7
8
HANDALSTONE_pc119
100
AcDbLine
10
107.40031
20
1.2843
30
0.0
11
107.38681
21
1.3174
31
0.0
0
LINE
100
AcDbEntity
62
7
8
HANDALSTONE_pc119
100
AcDbLine
10
107.38681
20
1.3174
30
0.0
11
107.37171
21
1.3497
31
0.0
0
LINE
100
AcDbEntity
62
7
8
HANDALSTONE_pc119
100
AcDbLine
10
107.37171
20
1.3497
30
0.0
11
107.35501
21
1.3813
31
0.0
0
LINE
100
AcDbEntity
62
7
8
HANDALSTONE_pc119
100
AcDbLine
10
107.35501
20
1.3813
30
0.0
11
107.33671
21
1.4119
31
0.0
0
LINE
100
AcDbEntity
62
7
8
HANDALSTONE_pc119
100
AcDbLine
10
107.33671
20
1.4119
30
0.0
11
107.31701
21
1.4417
31
0.0
0
LINE
100
AcDbEntity
62
7
8
HANDALSTONE_pc119
100
AcDbLine
10
107.31701
20
1.4417
30
0.0
11
107.29591
21
1.4706
31
0.0
0
LINE
100
AcDbEntity
62
7
8
HANDALSTONE_pc119
100
AcDbLine
10
107.29591
20
1.4706
30
0.0
11
107.27341
21
1.4986
31
0.0
0
LINE
100
AcDbEntity
62
7
8
HANDALSTONE_pc119
100
AcDbLine
10
107.27341
20
1.4986
30
0.0
11
107.24951
21
1.5255
31
0.0
0
LINE
100
AcDbEntity
62
7
8
HANDALSTONE_pc119
100
AcDbLine
10
107.24951
20
1.5255
30
0.0
11
107.22431
21
1.5514
31
0.0
0
LINE
100
AcDbEntity
62
7
8
HANDALSTONE_pc119
100
AcDbLine
10
107.22431
20
1.5514
30
0.0
11
107.19791
21
1.5762
31
0.0
0
LINE
100
AcDbEntity
62
7
8
HANDALSTONE_pc119
100
AcDbLine
10
107.19791
20
1.5762
30
0.0
11
107.17021
21
1.5999
31
0.0
0
LINE
100
AcDbEntity
62
7
8
HANDALSTONE_pc119
100
AcDbLine
10
107.17021
20
1.5999
30
0.0
11
107.14141
21
1.6225
31
0.0
0
LINE
100
AcDbEntity
62
7
8
HANDALSTONE_pc119
100
AcDbLine
10
107.14141
20
1.6225
30
0.0
11
107.11141
21
1.6439
31
0.0
0
LINE
100
AcDbEntity
62
7
8
HANDALSTONE_pc119
100
AcDbLine
10
107.11141
20
1.6439
30
0.0
11
107.08031
21
1.664
31
0.0
0
LINE
100
AcDbEntity
62
7
8
HANDALSTONE_pc119
100
AcDbLine
10
107.08031
20
1.664
30
0.0
11
107.04831
21
1.6828
31
0.0
0
LINE
100
AcDbEntity
62
7
8
HANDALSTONE_pc119
100
AcDbLine
10
107.04831
20
1.6828
30
0.0
11
107.01521
21
1.7004
31
0.0
0
LINE
100
AcDbEntity
62
7
8
HANDALSTONE_pc119
100
AcDbLine
10
107.01521
20
1.7004
30
0.0
11
106.98111
21
1.7165
31
0.0
0
LINE
100
AcDbEntity
62
7
8
HANDALSTONE_pc119
100
AcDbLine
10
106.98111
20
1.7165
30
0.0
11
106.94621
21
1.7313
31
0.0
0
LINE
100
AcDbEntity
62
7
8
HANDALSTONE_pc119
100
AcDbLine
10
106.94621
20
1.7313
30
0.0
11
106.91041
21
1.7447
31
0.0
0
LINE
100
AcDbEntity
62
7
8
HANDALSTONE_pc119
100
AcDbLine
10
106.91041
20
1.7447
30
0.0
11
106.87371
21
1.7566
31
0.0
0
LINE
100
AcDbEntity
62
7
8
HANDALSTONE_pc119
100
AcDbLine
10
106.87371
20
1.7566
30
0.0
11
106.83631
21
1.7669
31
0.0
0
LINE
100
AcDbEntity
62
7
8
HANDALSTONE_pc119
100
AcDbLine
10
106.83631
20
1.7669
30
0.0
11
106.79821
21
1.7757
31
0.0
0
LINE
100
AcDbEntity
62
7
8
HANDALSTONE_pc119
100
AcDbLine
10
106.79821
20
1.7757
30
0.0
11
106.75931
21
1.783
31
0.0
0
LINE
100
AcDbEntity
62
7
8
HANDALSTONE_pc119
100
AcDbLine
10
106.75931
20
1.783
30
0.0
11
106.71991
21
1.7885
31
0.0
0
LINE
100
AcDbEntity
62
7
8
HANDALSTONE_pc119
100
AcDbLine
10
106.71991
20
1.7885
30
0.0
11
106.67981
21
1.7924
31
0.0
0
LINE
100
AcDbEntity
62
7
8
HANDALSTONE_pc119
100
AcDbLine
10
106.67981
20
1.7924
30
0.0
11
106.67981
21
2.1057
31
0.0
0
LINE
100
AcDbEntity
62
7
8
HANDALSTONE_pc119
100
AcDbLine
10
106.67981
20
2.1057
30
0.0
11
106.61861
21
2.1074
31
0.0
0
LINE
100
AcDbEntity
62
7
8
HANDALSTONE_pc119
100
AcDbLine
10
106.61861
20
2.1074
30
0.0
11
106.58981
21
2.1091
31
0.0
0
LINE
100
AcDbEntity
62
7
8
HANDALSTONE_pc119
100
AcDbLine
10
106.58981
20
2.1091
30
0.0
11
106.56231
21
2.1115
31
0.0
0
LINE
100
AcDbEntity
62
7
8
HANDALSTONE_pc119
100
AcDbLine
10
106.56231
20
2.1115
30
0.0
11
106.53591
21
2.1146
31
0.0
0
LINE
100
AcDbEntity
62
7
8
HANDALSTONE_pc119
100
AcDbLine
10
106.53591
20
2.1146
30
0.0
11
106.51081
21
2.1186
31
0.0
0
LINE
100
AcDbEntity
62
7
8
HANDALSTONE_pc119
100
AcDbLine
10
106.51081
20
2.1186
30
0.0
11
106.48681
21
2.1236
31
0.0
0
LINE
100
AcDbEntity
62
7
8
HANDALSTONE_pc119
100
AcDbLine
10
106.48681
20
2.1236
30
0.0
11
106.46401
21
2.1295
31
0.0
0
LINE
100
AcDbEntity
62
7
8
HANDALSTONE_pc119
100
AcDbLine
10
106.46401
20
2.1295
30
0.0
11
106.44241
21
2.1366
31
0.0
0
LINE
100
AcDbEntity
62
7
8
HANDALSTONE_pc119
100
AcDbLine
10
106.44241
20
2.1366
30
0.0
11
106.42181
21
2.1448
31
0.0
0
LINE
100
AcDbEntity
62
7
8
HANDALSTONE_pc119
100
AcDbLine
10
106.42181
20
2.1448
30
0.0
11
106.40241
21
2.1543
31
0.0
0
LINE
100
AcDbEntity
62
7
8
HANDALSTONE_pc119
100
AcDbLine
10
106.40241
20
2.1543
30
0.0
11
106.38401
21
2.1652
31
0.0
0
LINE
100
AcDbEntity
62
7
8
HANDALSTONE_pc119
100
AcDbLine
10
106.38401
20
2.1652
30
0.0
11
106.36681
21
2.1776
31
0.0
0
LINE
100
AcDbEntity
62
7
8
HANDALSTONE_pc119
100
AcDbLine
10
106.36681
20
2.1776
30
0.0
11
106.35051
21
2.1914
31
0.0
0
LINE
100
AcDbEntity
62
7
8
HANDALSTONE_pc119
100
AcDbLine
10
106.35051
20
2.1914
30
0.0
11
106.33541
21
2.2069
31
0.0
0
LINE
100
AcDbEntity
62
7
8
HANDALSTONE_pc119
100
AcDbLine
10
106.33541
20
2.2069
30
0.0
11
106.32121
21
2.2242
31
0.0
0
LINE
100
AcDbEntity
62
7
8
HANDALSTONE_pc119
100
AcDbLine
10
106.32121
20
2.2242
30
0.0
11
106.30811
21
2.2432
31
0.0
0
LINE
100
AcDbEntity
62
7
8
HANDALSTONE_pc119
100
AcDbLine
10
106.30811
20
2.2432
30
0.0
11
106.29591
21
2.26408
31
0.0
0
LINE
100
AcDbEntity
62
7
8
HANDALSTONE_pc119
100
AcDbLine
10
106.29591
20
2.26408
30
0.0
11
106.28481
21
2.28694
31
0.0
0
LINE
100
AcDbEntity
62
7
8
HANDALSTONE_pc119
100
AcDbLine
10
106.28481
20
2.28694
30
0.0
11
106.27461
21
2.31186
31
0.0
0
LINE
100
AcDbEntity
62
7
8
HANDALSTONE_pc119
100
AcDbLine
10
106.27461
20
2.31186
30
0.0
11
106.26531
21
2.33891
31
0.0
0
LINE
100
AcDbEntity
62
7
8
HANDALSTONE_pc119
100
AcDbLine
10
106.26531
20
2.33891
30
0.0
11
106.25701
21
2.36819
31
0.0
0
LINE
100
AcDbEntity
62
7
8
HANDALSTONE_pc119
100
AcDbLine
10
106.25701
20
2.36819
30
0.0
11
106.24961
21
2.39978
31
0.0
0
LINE
100
AcDbEntity
62
7
8
HANDALSTONE_pc119
100
AcDbLine
10
106.24961
20
2.39978
30
0.0
11
106.24301
21
2.43378
31
0.0
0
LINE
100
AcDbEntity
62
7
8
HANDALSTONE_pc119
100
AcDbLine
10
106.24301
20
2.43378
30
0.0
11
106.23741
21
2.47025
31
0.0
0
LINE
100
AcDbEntity
62
7
8
HANDALSTONE_pc119
100
AcDbLine
10
106.23741
20
2.47025
30
0.0
11
106.23261
21
2.50929
31
0.0
0
LINE
100
AcDbEntity
62
7
8
HANDALSTONE_pc119
100
AcDbLine
10
106.23261
20
2.50929
30
0.0
11
106.22871
21
2.55099
31
0.0
0
LINE
100
AcDbEntity
62
7
8
HANDALSTONE_pc119
100
AcDbLine
10
106.22871
20
2.55099
30
0.0
11
106.22561
21
2.59544
31
0.0
0
LINE
100
AcDbEntity
62
7
8
HANDALSTONE_pc119
100
AcDbLine
10
106.22561
20
2.59544
30
0.0
11
106.22331
21
2.64272
31
0.0
0
LINE
100
AcDbEntity
62
7
8
HANDALSTONE_pc119
100
AcDbLine
10
106.22331
20
2.64272
30
0.0
11
106.22181
21
2.6929
31
0.0
0
LINE
100
AcDbEntity
62
7
8
HANDALSTONE_pc119
100
AcDbLine
10
106.22181
20
2.6929
30
0.0
11
106.22121
21
2.74609
31
0.0
0
LINE
100
AcDbEntity
62
7
8
HANDALSTONE_pc119
100
AcDbLine
10
106.22121
20
2.74609
30
0.0
11
106.22121
21
5.89926
31
0.0
0
LINE
100
AcDbEntity
62
7
8
HANDALSTONE_pc119
100
AcDbLine
10
106.22121
20
5.89926
30
0.0
11
105.82381
21
5.89926
31
0.0
0
LINE
100
AcDbEntity
62
7
8
HANDALSTONE_pc119
100
AcDbLine
10
105.82381
20
5.89926
30
0.0
11
105.82381
21
7.00589
31
0.0
0
LINE
100
AcDbEntity
62
7
8
HANDALSTONE_pc119
100
AcDbLine
10
105.82381
20
7.00589
30
0.0
11
106.22121
21
7.00589
31
0.0
0
LINE
100
AcDbEntity
62
7
8
HANDALSTONE_pc119
100
AcDbLine
10
106.22121
20
7.00589
30
0.0
11
106.22121
21
7.57112
31
0.0
0
LINE
100
AcDbEntity
62
7
8
HANDALSTONE_pc119
100
AcDbLine
10
106.22121
20
7.57112
30
0.0
11
106.27651
21
7.58241
31
0.0
0
LINE
100
AcDbEntity
62
7
8
HANDALSTONE_pc119
100
AcDbLine
10
106.27651
20
7.58241
30
0.0
11
106.32861
21
7.59552
31
0.0
0
LINE
100
AcDbEntity
62
7
8
HANDALSTONE_pc119
100
AcDbLine
10
106.32861
20
7.59552
30
0.0
11
106.37751
21
7.6104
31
0.0
0
LINE
100
AcDbEntity
62
7
8
HANDALSTONE_pc119
100
AcDbLine
10
106.37751
20
7.6104
30
0.0
11
106.42341
21
7.62695
31
0.0
0
LINE
100
AcDbEntity
62
7
8
HANDALSTONE_pc119
100
AcDbLine
10
106.42341
20
7.62695
30
0.0
11
106.46631
21
7.64514
31
0.0
0
LINE
100
AcDbEntity
62
7
8
HANDALSTONE_pc119
100
AcDbLine
10
106.46631
20
7.64514
30
0.0
11
106.50641
21
7.6649
31
0.0
0
LINE
100
AcDbEntity
62
7
8
HANDALSTONE_pc119
100
AcDbLine
10
106.50641
20
7.6649
30
0.0
11
106.54381
21
7.68616
31
0.0
0
LINE
100
AcDbEntity
62
7
8
HANDALSTONE_pc119
100
AcDbLine
10
106.54381
20
7.68616
30
0.0
11
106.57851
21
7.70885
31
0.0
0
LINE
100
AcDbEntity
62
7
8
HANDALSTONE_pc119
100
AcDbLine
10
106.57851
20
7.70885
30
0.0
11
106.61071
21
7.73291
31
0.0
0
LINE
100
AcDbEntity
62
7
8
HANDALSTONE_pc119
100
AcDbLine
10
106.61071
20
7.73291
30
0.0
11
106.64061
21
7.75829
31
0.0
0
LINE
100
AcDbEntity
62
7
8
HANDALSTONE_pc119
100
AcDbLine
10
106.64061
20
7.75829
30
0.0
11
106.66811
21
7.78491
31
0.0
0
LINE
100
AcDbEntity
62
7
8
HANDALSTONE_pc119
100
AcDbLine
10
106.66811
20
7.78491
30
0.0
11
106.69341
21
7.81271
31
0.0
0
LINE
100
AcDbEntity
62
7
8
HANDALSTONE_pc119
100
AcDbLine
10
106.69341
20
7.81271
30
0.0
11
106.71661
21
7.84163
31
0.0
0
LINE
100
AcDbEntity
62
7
8
HANDALSTONE_pc119
100
AcDbLine
10
106.71661
20
7.84163
30
0.0
11
106.73791
21
7.8716
31
0.0
0
LINE
100
AcDbEntity
62
7
8
HANDALSTONE_pc119
100
AcDbLine
10
106.73791
20
7.8716
30
0.0
11
106.75731
21
7.90256
31
0.0
0
LINE
100
AcDbEntity
62
7
8
HANDALSTONE_pc119
100
AcDbLine
10
106.75731
20
7.90256
30
0.0
11
106.77491
21
7.93445
31
0.0
0
LINE
100
AcDbEntity
62
7
8
HANDALSTONE_pc119
100
AcDbLine
10
106.77491
20
7.93445
30
0.0
11
106.79081
21
7.96719
31
0.0
0
LINE
100
AcDbEntity
62
7
8
HANDALSTONE_pc119
100
AcDbLine
10
106.79081
20
7.96719
30
0.0
11
106.80521
21
8.00073
31
0.0
0
LINE
100
AcDbEntity
62
7
8
HANDALSTONE_pc119
100
AcDbLine
10
106.80521
20
8.00073
30
0.0
11
106.81811
21
8.035
31
0.0
0
LINE
100
AcDbEntity
62
7
8
HANDALSTONE_pc119
100
AcDbLine
10
106.81811
20
8.035
30
0.0
11
106.82961
21
8.06995
31
0.0
0
LINE
100
AcDbEntity
62
7
8
HANDALSTONE_pc119
100
AcDbLine
10
106.82961
20
8.06995
30
0.0
11
106.83991
21
8.1055
31
0.0
0
LINE
100
AcDbEntity
62
7
8
HANDALSTONE_pc119
100
AcDbLine
10
106.83991
20
8.1055
30
0.0
11
106.84911
21
8.1416
31
0.0
0
LINE
100
AcDbEntity
62
7
8
HANDALSTONE_pc119
100
AcDbLine
10
106.84911
20
8.1416
30
0.0
11
106.85731
21
8.17816
31
0.0
0
LINE
100
AcDbEntity
62
7
8
HANDALSTONE_pc119
100
AcDbLine
10
106.85731
20
8.17816
30
0.0
11
106.86451
21
8.21515
31
0.0
0
LINE
100
AcDbEntity
62
7
8
HANDALSTONE_pc119
100
AcDbLine
10
106.86451
20
8.21515
30
0.0
11
106.87091
21
8.25249
31
0.0
0
LINE
100
AcDbEntity
62
7
8
HANDALSTONE_pc119
100
AcDbLine
10
106.87091
20
8.25249
30
0.0
11
106.87661
21
8.2901
31
0.0
0
LINE
100
AcDbEntity
62
7
8
HANDALSTONE_pc119
100
AcDbLine
10
106.87661
20
8.2901
30
0.0
11
106.88621
21
8.36594
31
0.0
0
LINE
100
AcDbEntity
62
7
8
HANDALSTONE_pc119
100
AcDbLine
10
106.88621
20
8.36594
30
0.0
11
106.89431
21
8.44215
31
0.0
0
LINE
100
AcDbEntity
62
7
8
HANDALSTONE_pc119
100
AcDbLine
10
106.89431
20
8.44215
30
0.0
11
106.90911
21
8.59366
31
0.0
0
LINE
100
AcDbEntity
62
7
8
HANDALSTONE_pc119
100
AcDbLine
10
106.90911
20
8.59366
30
0.0
11
106.91751
21
8.66794
31
0.0
0
LINE
100
AcDbEntity
62
7
8
HANDALSTONE_pc119
100
AcDbLine
10
106.91751
20
8.66794
30
0.0
11
106.92771
21
8.74054
31
0.0
0
LINE
100
AcDbEntity
62
7
8
HANDALSTONE_pc119
100
AcDbLine
10
106.92771
20
8.74054
30
0.0
11
106.93381
21
8.77605
31
0.0
0
LINE
100
AcDbEntity
62
7
8
HANDALSTONE_pc119
100
AcDbLine
10
106.93381
20
8.77605
30
0.0
11
106.94061
21
8.81096
31
0.0
0
LINE
100
AcDbEntity
62
7
8
HANDALSTONE_pc119
100
AcDbLine
10
106.94061
20
8.81096
30
0.0
11
106.94831
21
8.84518
31
0.0
0
LINE
100
AcDbEntity
62
7
8
HANDALSTONE_pc119
100
AcDbLine
10
106.94831
20
8.84518
30
0.0
11
106.95701
21
8.87868
31
0.0
0
LINE
100
AcDbEntity
62
7
8
HANDALSTONE_pc119
100
AcDbLine
10
106.95701
20
8.87868
30
0.0
11
106.96671
21
8.91138
31
0.0
0
LINE
100
AcDbEntity
62
7
8
HANDALSTONE_pc119
100
AcDbLine
10
106.96671
20
8.91138
30
0.0
11
106.97771
21
8.94321
31
0.0
0
LINE
100
AcDbEntity
62
7
8
HANDALSTONE_pc119
100
AcDbLine
10
106.97771
20
8.94321
30
0.0
11
106.98991
21
8.97409
31
0.0
0
LINE
100
AcDbEntity
62
7
8
HANDALSTONE_pc119
100
AcDbLine
10
106.98991
20
8.97409
30
0.0
11
107.00361
21
9.004
31
0.0
0
LINE
100
AcDbEntity
62
7
8
HANDALSTONE_pc119
100
AcDbLine
10
107.00361
20
9.004
30
0.0
11
107.01871
21
9.03285
31
0.0
0
LINE
100
AcDbEntity
62
7
8
HANDALSTONE_pc119
100
AcDbLine
10
107.01871
20
9.03285
30
0.0
11
107.03551
21
9.06058
31
0.0
0
LINE
100
AcDbEntity
62
7
8
HANDALSTONE_pc119
100
AcDbLine
10
107.03551
20
9.06058
30
0.0
11
107.05401
21
9.08711
31
0.0
0
LINE
100
AcDbEntity
62
7
8
HANDALSTONE_pc119
100
AcDbLine
10
107.05401
20
9.08711
30
0.0
11
107.07441
21
9.11241
31
0.0
0
LINE
100
AcDbEntity
62
7
8
HANDALSTONE_pc119
100
AcDbLine
10
107.07441
20
9.11241
30
0.0
11
107.09661
21
9.13638
31
0.0
0
LINE
100
AcDbEntity
62
7
8
HANDALSTONE_pc119
100
AcDbLine
10
107.09661
20
9.13638
30
0.0
11
107.12091
21
9.159
31
0.0
0
LINE
100
AcDbEntity
62
7
8
HANDALSTONE_pc119
100
AcDbLine
10
107.12091
20
9.159
30
0.0
11
107.14741
21
9.18016
31
0.0
0
LINE
100
AcDbEntity
62
7
8
HANDALSTONE_pc119
100
AcDbLine
10
107.14741
20
9.18016
30
0.0
11
107.17611
21
9.19981
31
0.0
0
LINE
100
AcDbEntity
62
7
8
HANDALSTONE_pc119
100
AcDbLine
10
107.17611
20
9.19981
30
0.0
11
107.20721
21
9.2179
31
0.0
0
LINE
100
AcDbEntity
62
7
8
HANDALSTONE_pc119
100
AcDbLine
10
107.20721
20
9.2179
30
0.0
11
107.24071
21
9.23436
31
0.0
0
LINE
100
AcDbEntity
62
7
8
HANDALSTONE_pc119
100
AcDbLine
10
107.24071
20
9.23436
30
0.0
11
107.27681
21
9.24911
31
0.0
0
LINE
100
AcDbEntity
62
7
8
HANDALSTONE_pc119
100
AcDbLine
10
107.27681
20
9.24911
30
0.0
11
107.31561
21
9.26212
31
0.0
0
LINE
100
AcDbEntity
62
7
8
HANDALSTONE_pc119
100
AcDbLine
10
107.31561
20
9.26212
30
0.0
11
107.35711
21
9.27328
31
0.0
0
LINE
100
AcDbEntity
62
7
8
HANDALSTONE_pc119
100
AcDbLine
10
107.35711
20
9.27328
30
0.0
11
107.40161
21
9.28258
31
0.0
0
LINE
100
AcDbEntity
62
7
8
HANDALSTONE_pc119
100
AcDbLine
10
107.40161
20
9.28258
30
0.0
11
107.44901
21
9.28992
31
0.0
0
LINE
100
AcDbEntity
62
7
8
HANDALSTONE_pc119
100
AcDbLine
10
107.44901
20
9.28992
30
0.0
11
107.49961
21
9.29523
31
0.0
0
LINE
100
AcDbEntity
62
7
8
HANDALSTONE_pc119
100
AcDbLine
10
107.49961
20
9.29523
30
0.0
11
107.55331
21
9.29846
31
0.0
0
LINE
100
AcDbEntity
62
7
8
HANDALSTONE_pc119
100
AcDbLine
10
107.55331
20
9.29846
30
0.0
11
107.61041
21
9.29956
31
0.0
0
LINE
100
AcDbEntity
62
7
8
HANDALSTONE_pc119
100
AcDbLine
10
107.61041
20
9.29956
30
0.0
11
107.60991
21
9.442
31
0.0
0
LINE
100
AcDbEntity
62
7
8
HANDALSTONE_pc119
100
AcDbLine
10
107.60991
20
9.442
30
0.0
11
107.64691
21
9.4438
31
0.0
0
LINE
100
AcDbEntity
62
7
8
HANDALSTONE_pc119
100
AcDbLine
10
107.64691
20
9.4438
30
0.0
11
107.68101
21
9.44769
31
0.0
0
LINE
100
AcDbEntity
62
7
8
HANDALSTONE_pc119
100
AcDbLine
10
107.68101
20
9.44769
30
0.0
11
107.71221
21
9.45381
31
0.0
0
LINE
100
AcDbEntity
62
7
8
HANDALSTONE_pc119
100
AcDbLine
10
107.71221
20
9.45381
30
0.0
11
107.72681
21
9.45775
31
0.0
0
LINE
100
AcDbEntity
62
7
8
HANDALSTONE_pc119
100
AcDbLine
10
107.72681
20
9.45775
30
0.0
11
107.74061
21
9.46225
31
0.0
0
LINE
100
AcDbEntity
62
7
8
HANDALSTONE_pc119
100
AcDbLine
10
107.74061
20
9.46225
30
0.0
11
107.75381
21
9.46738
31
0.0
0
LINE
100
AcDbEntity
62
7
8
HANDALSTONE_pc119
100
AcDbLine
10
107.75381
20
9.46738
30
0.0
11
107.76641
21
9.4731
31
0.0
0
LINE
100
AcDbEntity
62
7
8
HANDALSTONE_pc119
100
AcDbLine
10
107.76641
20
9.4731
30
0.0
11
107.77831
21
9.47946
31
0.0
0
LINE
100
AcDbEntity
62
7
8
HANDALSTONE_pc119
100
AcDbLine
10
107.77831
20
9.47946
30
0.0
11
107.78951
21
9.48647
31
0.0
0
LINE
100
AcDbEntity
62
7
8
HANDALSTONE_pc119
100
AcDbLine
10
107.78951
20
9.48647
30
0.0
11
107.80011
21
9.49413
31
0.0
0
LINE
100
AcDbEntity
62
7
8
HANDALSTONE_pc119
100
AcDbLine
10
107.80011
20
9.49413
30
0.0
11
107.81001
21
9.50244
31
0.0
0
LINE
100
AcDbEntity
62
7
8
HANDALSTONE_pc119
100
AcDbLine
10
107.81001
20
9.50244
30
0.0
11
107.81941
21
9.51144
31
0.0
0
LINE
100
AcDbEntity
62
7
8
HANDALSTONE_pc119
100
AcDbLine
10
107.81941
20
9.51144
30
0.0
11
107.82811
21
9.52115
31
0.0
0
LINE
100
AcDbEntity
62
7
8
HANDALSTONE_pc119
100
AcDbLine
10
107.82811
20
9.52115
30
0.0
11
107.83631
21
9.53154
31
0.0
0
LINE
100
AcDbEntity
62
7
8
HANDALSTONE_pc119
100
AcDbLine
10
107.83631
20
9.53154
30
0.0
11
107.84381
21
9.54265
31
0.0
0
LINE
100
AcDbEntity
62
7
8
HANDALSTONE_pc119
100
AcDbLine
10
107.84381
20
9.54265
30
0.0
11
107.85071
21
9.55449
31
0.0
0
LINE
100
AcDbEntity
62
7
8
HANDALSTONE_pc119
100
AcDbLine
10
107.85071
20
9.55449
30
0.0
11
107.85711
21
9.56708
31
0.0
0
LINE
100
AcDbEntity
62
7
8
HANDALSTONE_pc119
100
AcDbLine
10
107.85711
20
9.56708
30
0.0
11
107.86301
21
9.5804
31
0.0
0
LINE
100
AcDbEntity
62
7
8
HANDALSTONE_pc119
100
AcDbLine
10
107.86301
20
9.5804
30
0.0
11
107.86821
21
9.5945
31
0.0
0
LINE
100
AcDbEntity
62
7
8
HANDALSTONE_pc119
100
AcDbLine
10
107.86821
20
9.5945
30
0.0
11
107.87711
21
9.62505
31
0.0
0
LINE
100
AcDbEntity
62
7
8
HANDALSTONE_pc119
100
AcDbLine
10
107.87711
20
9.62505
30
0.0
11
107.88391
21
9.65881
31
0.0
0
LINE
100
AcDbEntity
62
7
8
HANDALSTONE_pc119
100
AcDbLine
10
107.88391
20
9.65881
30
0.0
11
107.88871
21
9.69589
31
0.0
0
LINE
100
AcDbEntity
62
7
8
HANDALSTONE_pc119
100
AcDbLine
10
107.88871
20
9.69589
30
0.0
11
107.89151
21
9.73637
31
0.0
0
LINE
100
AcDbEntity
62
7
8
HANDALSTONE_pc119
100
AcDbLine
10
107.89151
20
9.73637
30
0.0
11
107.89241
21
9.78036
31
0.0
0
LINE
100
AcDbEntity
62
7
8
HANDALSTONE_pc119
100
AcDbLine
10
107.89241
20
9.78036
30
0.0
11
108.16541
21
9.78036
31
0.0
0
LINE
100
AcDbEntity
62
7
8
HANDALSTONE_pc119
100
AcDbLine
10
108.16541
20
9.78036
30
0.0
11
108.16541
21
11.35672
31
0.0
0
LINE
100
AcDbEntity
62
7
8
HANDALSTONE_pc119
100
AcDbLine
10
108.16541
20
11.35672
30
0.0
11
106.61931
21
11.35672
31
0.0
0
LINE
100
AcDbEntity
62
7
8
HANDALSTONE_pc119
100
AcDbLine
10
106.61931
20
11.35672
30
0.0
11
106.59711
21
11.3577
31
0.0
0
LINE
100
AcDbEntity
62
7
8
HANDALSTONE_pc119
100
AcDbLine
10
106.59711
20
11.3577
30
0.0
11
106.56141
21
11.3604
31
0.0
0
LINE
100
AcDbEntity
62
7
8
HANDALSTONE_pc119
100
AcDbLine
10
106.56141
20
11.3604
30
0.0
11
106.52591
21
11.36446
31
0.0
0
LINE
100
AcDbEntity
62
7
8
HANDALSTONE_pc119
100
AcDbLine
10
106.52591
20
11.36446
30
0.0
11
106.49061
21
11.37012
31
0.0
0
LINE
100
AcDbEntity
62
7
8
HANDALSTONE_pc119
100
AcDbLine
10
106.49061
20
11.37012
30
0.0
11
106.45591
21
11.37758
31
0.0
0
LINE
100
AcDbEntity
62
7
8
HANDALSTONE_pc119
100
AcDbLine
10
106.45591
20
11.37758
30
0.0
11
106.42201
21
11.3871
31
0.0
0
LINE
100
AcDbEntity
62
7
8
HANDALSTONE_pc119
100
AcDbLine
10
106.42201
20
11.3871
30
0.0
11
106.38921
21
11.39889
31
0.0
0
LINE
100
AcDbEntity
62
7
8
HANDALSTONE_pc119
100
AcDbLine
10
106.38921
20
11.39889
30
0.0
11
106.37331
21
11.40572
31
0.0
0
LINE
100
AcDbEntity
62
7
8
HANDALSTONE_pc119
100
AcDbLine
10
106.37331
20
11.40572
30
0.0
11
106.35771
21
11.41319
31
0.0
0
LINE
100
AcDbEntity
62
7
8
HANDALSTONE_pc119
100
AcDbLine
10
106.35771
20
11.41319
30
0.0
11
106.34261
21
11.42136
31
0.0
0
LINE
100
AcDbEntity
62
7
8
HANDALSTONE_pc119
100
AcDbLine
10
106.34261
20
11.42136
30
0.0
11
106.32781
21
11.43022
31
0.0
0
LINE
100
AcDbEntity
62
7
8
HANDALSTONE_pc119
100
AcDbLine
10
106.32781
20
11.43022
30
0.0
11
106.31351
21
11.43983
31
0.0
0
LINE
100
AcDbEntity
62
7
8
HANDALSTONE_pc119
100
AcDbLine
10
106.31351
20
11.43983
30
0.0
11
106.29971
21
11.45021
31
0.0
0
LINE
100
AcDbEntity
62
7
8
HANDALSTONE_pc119
100
AcDbLine
10
106.29971
20
11.45021
30
0.0
11
106.28641
21
11.46138
31
0.0
0
LINE
100
AcDbEntity
62
7
8
HANDALSTONE_pc119
100
AcDbLine
10
106.28641
20
11.46138
30
0.0
11
106.27371
21
11.47337
31
0.0
0
LINE
100
AcDbEntity
62
7
8
HANDALSTONE_pc119
100
AcDbLine
10
106.27371
20
11.47337
30
0.0
11
106.26151
21
11.48622
31
0.0
0
LINE
100
AcDbEntity
62
7
8
HANDALSTONE_pc119
100
AcDbLine
10
106.26151
20
11.48622
30
0.0
11
106.25001
21
11.49995
31
0.0
0
LINE
100
AcDbEntity
62
7
8
HANDALSTONE_pc119
100
AcDbLine
10
106.25001
20
11.49995
30
0.0
11
105.16541
21
11.49998
31
0.0
0
LINE
100
AcDbEntity
62
7
8
HANDALSTONE_pc119
100
AcDbLine
10
105.16541
20
11.49998
30
0.0
11
105.16541
21
0
31
0.0
0
LINE
100
AcDbEntity
62
7
8
HANDALSTONE_pc119
100
AcDbLine
10
105.16541
20
0
30
0.0
11
106.66541
21
0
31
0.0
0
LINE
100
AcDbEntity
62
7
8
HANDALSTONE_pc119
100
AcDbLine
10
63.8346
20
11.49998
30
0.0
11
62.75
21
11.49995
31
0.0
0
LINE
100
AcDbEntity
62
7
8
HANDALSTONE_pc119
100
AcDbLine
10
62.75
20
11.49995
30
0.0
11
62.7385
21
11.48622
31
0.0
0
LINE
100
AcDbEntity
62
7
8
HANDALSTONE_pc119
100
AcDbLine
10
62.7385
20
11.48622
30
0.0
11
62.7263
21
11.47337
31
0.0
0
LINE
100
AcDbEntity
62
7
8
HANDALSTONE_pc119
100
AcDbLine
10
62.7263
20
11.47337
30
0.0
11
62.7136
21
11.46138
31
0.0
0
LINE
100
AcDbEntity
62
7
8
HANDALSTONE_pc119
100
AcDbLine
10
62.7136
20
11.46138
30
0.0
11
62.7003
21
11.45021
31
0.0
0
LINE
100
AcDbEntity
62
7
8
HANDALSTONE_pc119
100
AcDbLine
10
62.7003
20
11.45021
30
0.0
11
62.6865
21
11.43983
31
0.0
0
LINE
100
AcDbEntity
62
7
8
HANDALSTONE_pc119
100
AcDbLine
10
62.6865
20
11.43983
30
0.0
11
62.6722
21
11.43022
31
0.0
0
LINE
100
AcDbEntity
62
7
8
HANDALSTONE_pc119
100
AcDbLine
10
62.6722
20
11.43022
30
0.0
11
62.6574
21
11.42136
31
0.0
0
LINE
100
AcDbEntity
62
7
8
HANDALSTONE_pc119
100
AcDbLine
10
62.6574
20
11.42136
30
0.0
11
62.6423
21
11.41319
31
0.0
0
LINE
100
AcDbEntity
62
7
8
HANDALSTONE_pc119
100
AcDbLine
10
62.6423
20
11.41319
30
0.0
11
62.6267
21
11.40572
31
0.0
0
LINE
100
AcDbEntity
62
7
8
HANDALSTONE_pc119
100
AcDbLine
10
62.6267
20
11.40572
30
0.0
11
62.6108
21
11.39889
31
0.0
0
LINE
100
AcDbEntity
62
7
8
HANDALSTONE_pc119
100
AcDbLine
10
62.6108
20
11.39889
30
0.0
11
62.578
21
11.3871
31
0.0
0
LINE
100
AcDbEntity
62
7
8
HANDALSTONE_pc119
100
AcDbLine
10
62.578
20
11.3871
30
0.0
11
62.5441
21
11.37758
31
0.0
0
LINE
100
AcDbEntity
62
7
8
HANDALSTONE_pc119
100
AcDbLine
10
62.5441
20
11.37758
30
0.0
11
62.5094
21
11.37012
31
0.0
0
LINE
100
AcDbEntity
62
7
8
HANDALSTONE_pc119
100
AcDbLine
10
62.5094
20
11.37012
30
0.0
11
62.4741
21
11.36446
31
0.0
0
LINE
100
AcDbEntity
62
7
8
HANDALSTONE_pc119
100
AcDbLine
10
62.4741
20
11.36446
30
0.0
11
62.4386
21
11.3604
31
0.0
0
LINE
100
AcDbEntity
62
7
8
HANDALSTONE_pc119
100
AcDbLine
10
62.4386
20
11.3604
30
0.0
11
62.4029
21
11.3577
31
0.0
0
LINE
100
AcDbEntity
62
7
8
HANDALSTONE_pc119
100
AcDbLine
10
62.4029
20
11.3577
30
0.0
11
62.3807
21
11.35672
31
0.0
0
LINE
100
AcDbEntity
62
7
8
HANDALSTONE_pc119
100
AcDbLine
10
62.3807
20
11.35672
30
0.0
11
60.8346
21
11.35672
31
0.0
0
LINE
100
AcDbEntity
62
7
8
HANDALSTONE_pc119
100
AcDbLine
10
60.8346
20
11.35672
30
0.0
11
60.8346
21
9.78036
31
0.0
0
LINE
100
AcDbEntity
62
7
8
HANDALSTONE_pc119
100
AcDbLine
10
60.8346
20
9.78036
30
0.0
11
61.1076
21
9.78036
31
0.0
0
LINE
100
AcDbEntity
62
7
8
HANDALSTONE_pc119
100
AcDbLine
10
61.1076
20
9.78036
30
0.0
11
61.1085
21
9.73637
31
0.0
0
LINE
100
AcDbEntity
62
7
8
HANDALSTONE_pc119
100
AcDbLine
10
61.1085
20
9.73637
30
0.0
11
61.1113
21
9.69589
31
0.0
0
LINE
100
AcDbEntity
62
7
8
HANDALSTONE_pc119
100
AcDbLine
10
61.1113
20
9.69589
30
0.0
11
61.1161
21
9.65881
31
0.0
0
LINE
100
AcDbEntity
62
7
8
HANDALSTONE_pc119
100
AcDbLine
10
61.1161
20
9.65881
30
0.0
11
61.1229
21
9.62505
31
0.0
0
LINE
100
AcDbEntity
62
7
8
HANDALSTONE_pc119
100
AcDbLine
10
61.1229
20
9.62505
30
0.0
11
61.1318
21
9.5945
31
0.0
0
LINE
100
AcDbEntity
62
7
8
HANDALSTONE_pc119
100
AcDbLine
10
61.1318
20
9.5945
30
0.0
11
61.137
21
9.5804
31
0.0
0
LINE
100
AcDbEntity
62
7
8
HANDALSTONE_pc119
100
AcDbLine
10
61.137
20
9.5804
30
0.0
11
61.1429
21
9.56708
31
0.0
0
LINE
100
AcDbEntity
62
7
8
HANDALSTONE_pc119
100
AcDbLine
10
61.1429
20
9.56708
30
0.0
11
61.1493
21
9.55449
31
0.0
0
LINE
100
AcDbEntity
62
7
8
HANDALSTONE_pc119
100
AcDbLine
10
61.1493
20
9.55449
30
0.0
11
61.1562
21
9.54265
31
0.0
0
LINE
100
AcDbEntity
62
7
8
HANDALSTONE_pc119
100
AcDbLine
10
61.1562
20
9.54265
30
0.0
11
61.1637
21
9.53154
31
0.0
0
LINE
100
AcDbEntity
62
7
8
HANDALSTONE_pc119
100
AcDbLine
10
61.1637
20
9.53154
30
0.0
11
61.1719
21
9.52115
31
0.0
0
LINE
100
AcDbEntity
62
7
8
HANDALSTONE_pc119
100
AcDbLine
10
61.1719
20
9.52115
30
0.0
11
61.1806
21
9.51144
31
0.0
0
LINE
100
AcDbEntity
62
7
8
HANDALSTONE_pc119
100
AcDbLine
10
61.1806
20
9.51144
30
0.0
11
61.19
21
9.50244
31
0.0
0
LINE
100
AcDbEntity
62
7
8
HANDALSTONE_pc119
100
AcDbLine
10
61.19
20
9.50244
30
0.0
11
61.1999
21
9.49413
31
0.0
0
LINE
100
AcDbEntity
62
7
8
HANDALSTONE_pc119
100
AcDbLine
10
61.1999
20
9.49413
30
0.0
11
61.2105
21
9.48647
31
0.0
0
LINE
100
AcDbEntity
62
7
8
HANDALSTONE_pc119
100
AcDbLine
10
61.2105
20
9.48647
30
0.0
11
61.2217
21
9.47946
31
0.0
0
LINE
100
AcDbEntity
62
7
8
HANDALSTONE_pc119
100
AcDbLine
10
61.2217
20
9.47946
30
0.0
11
61.2336
21
9.4731
31
0.0
0
LINE
100
AcDbEntity
62
7
8
HANDALSTONE_pc119
100
AcDbLine
10
61.2336
20
9.4731
30
0.0
11
61.2462
21
9.46738
31
0.0
0
LINE
100
AcDbEntity
62
7
8
HANDALSTONE_pc119
100
AcDbLine
10
61.2462
20
9.46738
30
0.0
11
61.2594
21
9.46225
31
0.0
0
LINE
100
AcDbEntity
62
7
8
HANDALSTONE_pc119
100
AcDbLine
10
61.2594
20
9.46225
30
0.0
11
61.2732
21
9.45775
31
0.0
0
LINE
100
AcDbEntity
62
7
8
HANDALSTONE_pc119
100
AcDbLine
10
61.2732
20
9.45775
30
0.0
11
61.2878
21
9.45381
31
0.0
0
LINE
100
AcDbEntity
62
7
8
HANDALSTONE_pc119
100
AcDbLine
10
61.2878
20
9.45381
30
0.0
11
61.319
21
9.44769
31
0.0
0
LINE
100
AcDbEntity
62
7
8
HANDALSTONE_pc119
100
AcDbLine
10
61.319
20
9.44769
30
0.0
11
61.3531
21
9.4438
31
0.0
0
LINE
100
AcDbEntity
62
7
8
HANDALSTONE_pc119
100
AcDbLine
10
61.3531
20
9.4438
30
0.0
11
61.3901
21
9.442
31
0.0
0
LINE
100
AcDbEntity
62
7
8
HANDALSTONE_pc119
100
AcDbLine
10
61.3901
20
9.442
30
0.0
11
61.3896
21
9.29956
31
0.0
0
LINE
100
AcDbEntity
62
7
8
HANDALSTONE_pc119
100
AcDbLine
10
61.3896
20
9.29956
30
0.0
11
61.4467
21
9.29846
31
0.0
0
LINE
100
AcDbEntity
62
7
8
HANDALSTONE_pc119
100
AcDbLine
10
61.4467
20
9.29846
30
0.0
11
61.5004
21
9.29523
31
0.0
0
LINE
100
AcDbEntity
62
7
8
HANDALSTONE_pc119
100
AcDbLine
10
61.5004
20
9.29523
30
0.0
11
61.551
21
9.28992
31
0.0
0
LINE
100
AcDbEntity
62
7
8
HANDALSTONE_pc119
100
AcDbLine
10
61.551
20
9.28992
30
0.0
11
61.5984
21
9.28258
31
0.0
0
LINE
100
AcDbEntity
62
7
8
HANDALSTONE_pc119
100
AcDbLine
10
61.5984
20
9.28258
30
0.0
11
61.6429
21
9.27328
31
0.0
0
LINE
100
AcDbEntity
62
7
8
HANDALSTONE_pc119
100
AcDbLine
10
61.6429
20
9.27328
30
0.0
11
61.6844
21
9.26212
31
0.0
0
LINE
100
AcDbEntity
62
7
8
HANDALSTONE_pc119
100
AcDbLine
10
61.6844
20
9.26212
30
0.0
11
61.7232
21
9.24911
31
0.0
0
LINE
100
AcDbEntity
62
7
8
HANDALSTONE_pc119
100
AcDbLine
10
61.7232
20
9.24911
30
0.0
11
61.7593
21
9.23436
31
0.0
0
LINE
100
AcDbEntity
62
7
8
HANDALSTONE_pc119
100
AcDbLine
10
61.7593
20
9.23436
30
0.0
11
61.7928
21
9.2179
31
0.0
0
LINE
100
AcDbEntity
62
7
8
HANDALSTONE_pc119
100
AcDbLine
10
61.7928
20
9.2179
30
0.0
11
61.8239
21
9.19981
31
0.0
0
LINE
100
AcDbEntity
62
7
8
HANDALSTONE_pc119
100
AcDbLine
10
61.8239
20
9.19981
30
0.0
11
61.8526
21
9.18016
31
0.0
0
LINE
100
AcDbEntity
62
7
8
HANDALSTONE_pc119
100
AcDbLine
10
61.8526
20
9.18016
30
0.0
11
61.8791
21
9.159
31
0.0
0
LINE
100
AcDbEntity
62
7
8
HANDALSTONE_pc119
100
AcDbLine
10
61.8791
20
9.159
30
0.0
11
61.9034
21
9.13638
31
0.0
0
LINE
100
AcDbEntity
62
7
8
HANDALSTONE_pc119
100
AcDbLine
10
61.9034
20
9.13638
30
0.0
11
61.9256
21
9.11241
31
0.0
0
LINE
100
AcDbEntity
62
7
8
HANDALSTONE_pc119
100
AcDbLine
10
61.9256
20
9.11241
30
0.0
11
61.946
21
9.08711
31
0.0
0
LINE
100
AcDbEntity
62
7
8
HANDALSTONE_pc119
100
AcDbLine
10
61.946
20
9.08711
30
0.0
11
61.9645
21
9.06058
31
0.0
0
LINE
100
AcDbEntity
62
7
8
HANDALSTONE_pc119
100
AcDbLine
10
61.9645
20
9.06058
30
0.0
11
61.9813
21
9.03285
31
0.0
0
LINE
100
AcDbEntity
62
7
8
HANDALSTONE_pc119
100
AcDbLine
10
61.9813
20
9.03285
30
0.0
11
61.9964
21
9.004
31
0.0
0
LINE
100
AcDbEntity
62
7
8
HANDALSTONE_pc119
100
AcDbLine
10
61.9964
20
9.004
30
0.0
11
62.0101
21
8.97409
31
0.0
0
LINE
100
AcDbEntity
62
7
8
HANDALSTONE_pc119
100
AcDbLine
10
62.0101
20
8.97409
30
0.0
11
62.0223
21
8.94321
31
0.0
0
LINE
100
AcDbEntity
62
7
8
HANDALSTONE_pc119
100
AcDbLine
10
62.0223
20
8.94321
30
0.0
11
62.0333
21
8.91138
31
0.0
0
LINE
100
AcDbEntity
62
7
8
HANDALSTONE_pc119
100
AcDbLine
10
62.0333
20
8.91138
30
0.0
11
62.043
21
8.87868
31
0.0
0
LINE
100
AcDbEntity
62
7
8
HANDALSTONE_pc119
100
AcDbLine
10
62.043
20
8.87868
30
0.0
11
62.0517
21
8.84518
31
0.0
0
LINE
100
AcDbEntity
62
7
8
HANDALSTONE_pc119
100
AcDbLine
10
62.0517
20
8.84518
30
0.0
11
62.0594
21
8.81096
31
0.0
0
LINE
100
AcDbEntity
62
7
8
HANDALSTONE_pc119
100
AcDbLine
10
62.0594
20
8.81096
30
0.0
11
62.0662
21
8.77605
31
0.0
0
LINE
100
AcDbEntity
62
7
8
HANDALSTONE_pc119
100
AcDbLine
10
62.0662
20
8.77605
30
0.0
11
62.0723
21
8.74054
31
0.0
0
LINE
100
AcDbEntity
62
7
8
HANDALSTONE_pc119
100
AcDbLine
10
62.0723
20
8.74054
30
0.0
11
62.0825
21
8.66794
31
0.0
0
LINE
100
AcDbEntity
62
7
8
HANDALSTONE_pc119
100
AcDbLine
10
62.0825
20
8.66794
30
0.0
11
62.0909
21
8.59366
31
0.0
0
LINE
100
AcDbEntity
62
7
8
HANDALSTONE_pc119
100
AcDbLine
10
62.0909
20
8.59366
30
0.0
11
62.1057
21
8.44215
31
0.0
0
LINE
100
AcDbEntity
62
7
8
HANDALSTONE_pc119
100
AcDbLine
10
62.1057
20
8.44215
30
0.0
11
62.1138
21
8.36594
31
0.0
0
LINE
100
AcDbEntity
62
7
8
HANDALSTONE_pc119
100
AcDbLine
10
62.1138
20
8.36594
30
0.0
11
62.1234
21
8.2901
31
0.0
0
LINE
100
AcDbEntity
62
7
8
HANDALSTONE_pc119
100
AcDbLine
10
62.1234
20
8.2901
30
0.0
11
62.1291
21
8.25249
31
0.0
0
LINE
100
AcDbEntity
62
7
8
HANDALSTONE_pc119
100
AcDbLine
10
62.1291
20
8.25249
30
0.0
11
62.1355
21
8.21515
31
0.0
0
LINE
100
AcDbEntity
62
7
8
HANDALSTONE_pc119
100
AcDbLine
10
62.1355
20
8.21515
30
0.0
11
62.1427
21
8.17816
31
0.0
0
LINE
100
AcDbEntity
62
7
8
HANDALSTONE_pc119
100
AcDbLine
10
62.1427
20
8.17816
30
0.0
11
62.1509
21
8.1416
31
0.0
0
LINE
100
AcDbEntity
62
7
8
HANDALSTONE_pc119
100
AcDbLine
10
62.1509
20
8.1416
30
0.0
11
62.1601
21
8.1055
31
0.0
0
LINE
100
AcDbEntity
62
7
8
HANDALSTONE_pc119
100
AcDbLine
10
62.1601
20
8.1055
30
0.0
11
62.1704
21
8.06995
31
0.0
0
LINE
100
AcDbEntity
62
7
8
HANDALSTONE_pc119
100
AcDbLine
10
62.1704
20
8.06995
30
0.0
11
62.1819
21
8.035
31
0.0
0
LINE
100
AcDbEntity
62
7
8
HANDALSTONE_pc119
100
AcDbLine
10
62.1819
20
8.035
30
0.0
11
62.1948
21
8.00073
31
0.0
0
LINE
100
AcDbEntity
62
7
8
HANDALSTONE_pc119
100
AcDbLine
10
62.1948
20
8.00073
30
0.0
11
62.2092
21
7.96719
31
0.0
0
LINE
100
AcDbEntity
62
7
8
HANDALSTONE_pc119
100
AcDbLine
10
62.2092
20
7.96719
30
0.0
11
62.2251
21
7.93445
31
0.0
0
LINE
100
AcDbEntity
62
7
8
HANDALSTONE_pc119
100
AcDbLine
10
62.2251
20
7.93445
30
0.0
11
62.2427
21
7.90256
31
0.0
0
LINE
100
AcDbEntity
62
7
8
HANDALSTONE_pc119
100
AcDbLine
10
62.2427
20
7.90256
30
0.0
11
62.2621
21
7.8716
31
0.0
0
LINE
100
AcDbEntity
62
7
8
HANDALSTONE_pc119
100
AcDbLine
10
62.2621
20
7.8716
30
0.0
11
62.2834
21
7.84163
31
0.0
0
LINE
100
AcDbEntity
62
7
8
HANDALSTONE_pc119
100
AcDbLine
10
62.2834
20
7.84163
30
0.0
11
62.3066
21
7.81271
31
0.0
0
LINE
100
AcDbEntity
62
7
8
HANDALSTONE_pc119
100
AcDbLine
10
62.3066
20
7.81271
30
0.0
11
62.3319
21
7.78491
31
0.0
0
LINE
100
AcDbEntity
62
7
8
HANDALSTONE_pc119
100
AcDbLine
10
62.3319
20
7.78491
30
0.0
11
62.3594
21
7.75829
31
0.0
0
LINE
100
AcDbEntity
62
7
8
HANDALSTONE_pc119
100
AcDbLine
10
62.3594
20
7.75829
30
0.0
11
62.3893
21
7.73291
31
0.0
0
LINE
100
AcDbEntity
62
7
8
HANDALSTONE_pc119
100
AcDbLine
10
62.3893
20
7.73291
30
0.0
11
62.4215
21
7.70885
31
0.0
0
LINE
100
AcDbEntity
62
7
8
HANDALSTONE_pc119
100
AcDbLine
10
62.4215
20
7.70885
30
0.0
11
62.4562
21
7.68616
31
0.0
0
LINE
100
AcDbEntity
62
7
8
HANDALSTONE_pc119
100
AcDbLine
10
62.4562
20
7.68616
30
0.0
11
62.4936
21
7.6649
31
0.0
0
LINE
100
AcDbEntity
62
7
8
HANDALSTONE_pc119
100
AcDbLine
10
62.4936
20
7.6649
30
0.0
11
62.5337
21
7.64514
31
0.0
0
LINE
100
AcDbEntity
62
7
8
HANDALSTONE_pc119
100
AcDbLine
10
62.5337
20
7.64514
30
0.0
11
62.5766
21
7.62695
31
0.0
0
LINE
100
AcDbEntity
62
7
8
HANDALSTONE_pc119
100
AcDbLine
10
62.5766
20
7.62695
30
0.0
11
62.6225
21
7.6104
31
0.0
0
LINE
100
AcDbEntity
62
7
8
HANDALSTONE_pc119
100
AcDbLine
10
62.6225
20
7.6104
30
0.0
11
62.6714
21
7.59552
31
0.0
0
LINE
100
AcDbEntity
62
7
8
HANDALSTONE_pc119
100
AcDbLine
10
62.6714
20
7.59552
30
0.0
11
62.7235
21
7.58241
31
0.0
0
LINE
100
AcDbEntity
62
7
8
HANDALSTONE_pc119
100
AcDbLine
10
62.7235
20
7.58241
30
0.0
11
62.7788
21
7.57112
31
0.0
0
LINE
100
AcDbEntity
62
7
8
HANDALSTONE_pc119
100
AcDbLine
10
62.7788
20
7.57112
30
0.0
11
62.7788
21
7.00589
31
0.0
0
LINE
100
AcDbEntity
62
7
8
HANDALSTONE_pc119
100
AcDbLine
10
62.7788
20
7.00589
30
0.0
11
63.1762
21
7.00589
31
0.0
0
LINE
100
AcDbEntity
62
7
8
HANDALSTONE_pc119
100
AcDbLine
10
63.1762
20
7.00589
30
0.0
11
63.1762
21
5.89926
31
0.0
0
LINE
100
AcDbEntity
62
7
8
HANDALSTONE_pc119
100
AcDbLine
10
63.1762
20
5.89926
30
0.0
11
62.7788
21
5.89926
31
0.0
0
LINE
100
AcDbEntity
62
7
8
HANDALSTONE_pc119
100
AcDbLine
10
62.7788
20
5.89926
30
0.0
11
62.7788
21
2.74609
31
0.0
0
LINE
100
AcDbEntity
62
7
8
HANDALSTONE_pc119
100
AcDbLine
10
62.7788
20
2.74609
30
0.0
11
62.7782
21
2.6929
31
0.0
0
LINE
100
AcDbEntity
62
7
8
HANDALSTONE_pc119
100
AcDbLine
10
62.7782
20
2.6929
30
0.0
11
62.7767
21
2.64272
31
0.0
0
LINE
100
AcDbEntity
62
7
8
HANDALSTONE_pc119
100
AcDbLine
10
62.7767
20
2.64272
30
0.0
11
62.7744
21
2.59544
31
0.0
0
LINE
100
AcDbEntity
62
7
8
HANDALSTONE_pc119
100
AcDbLine
10
62.7744
20
2.59544
30
0.0
11
62.7713
21
2.55099
31
0.0
0
LINE
100
AcDbEntity
62
7
8
HANDALSTONE_pc119
100
AcDbLine
10
62.7713
20
2.55099
30
0.0
11
62.7674
21
2.50929
31
0.0
0
LINE
100
AcDbEntity
62
7
8
HANDALSTONE_pc119
100
AcDbLine
10
62.7674
20
2.50929
30
0.0
11
62.7626
21
2.47025
31
0.0
0
LINE
100
AcDbEntity
62
7
8
HANDALSTONE_pc119
100
AcDbLine
10
62.7626
20
2.47025
30
0.0
11
62.757
21
2.43378
31
0.0
0
LINE
100
AcDbEntity
62
7
8
HANDALSTONE_pc119
100
AcDbLine
10
62.757
20
2.43378
30
0.0
11
62.7504
21
2.39978
31
0.0
0
LINE
100
AcDbEntity
62
7
8
HANDALSTONE_pc119
100
AcDbLine
10
62.7504
20
2.39978
30
0.0
11
62.743
21
2.36819
31
0.0
0
LINE
100
AcDbEntity
62
7
8
HANDALSTONE_pc119
100
AcDbLine
10
62.743
20
2.36819
30
0.0
11
62.7347
21
2.33891
31
0.0
0
LINE
100
AcDbEntity
62
7
8
HANDALSTONE_pc119
100
AcDbLine
10
62.7347
20
2.33891
30
0.0
11
62.7254
21
2.31186
31
0.0
0
LINE
100
AcDbEntity
62
7
8
HANDALSTONE_pc119
100
AcDbLine
10
62.7254
20
2.31186
30
0.0
11
62.7152
21
2.28694
31
0.0
0
LINE
100
AcDbEntity
62
7
8
HANDALSTONE_pc119
100
AcDbLine
10
62.7152
20
2.28694
30
0.0
11
62.7041
21
2.26408
31
0.0
0
LINE
100
AcDbEntity
62
7
8
HANDALSTONE_pc119
100
AcDbLine
10
62.7041
20
2.26408
30
0.0
11
62.6919
21
2.2432
31
0.0
0
LINE
100
AcDbEntity
62
7
8
HANDALSTONE_pc119
100
AcDbLine
10
62.6919
20
2.2432
30
0.0
11
62.6788
21
2.2242
31
0.0
0
LINE
100
AcDbEntity
62
7
8
HANDALSTONE_pc119
100
AcDbLine
10
62.6788
20
2.2242
30
0.0
11
62.6646
21
2.2069
31
0.0
0
LINE
100
AcDbEntity
62
7
8
HANDALSTONE_pc119
100
AcDbLine
10
62.6646
20
2.2069
30
0.0
11
62.6495
21
2.1914
31
0.0
0
LINE
100
AcDbEntity
62
7
8
HANDALSTONE_pc119
100
AcDbLine
10
62.6495
20
2.1914
30
0.0
11
62.6332
21
2.1776
31
0.0
0
LINE
100
AcDbEntity
62
7
8
HANDALSTONE_pc119
100
AcDbLine
10
62.6332
20
2.1776
30
0.0
11
62.616
21
2.1652
31
0.0
0
LINE
100
AcDbEntity
62
7
8
HANDALSTONE_pc119
100
AcDbLine
10
62.616
20
2.1652
30
0.0
11
62.5976
21
2.1543
31
0.0
0
LINE
100
AcDbEntity
62
7
8
HANDALSTONE_pc119
100
AcDbLine
10
62.5976
20
2.1543
30
0.0
11
62.5782
21
2.1448
31
0.0
0
LINE
100
AcDbEntity
62
7
8
HANDALSTONE_pc119
100
AcDbLine
10
62.5782
20
2.1448
30
0.0
11
62.5576
21
2.1366
31
0.0
0
LINE
100
AcDbEntity
62
7
8
HANDALSTONE_pc119
100
AcDbLine
10
62.5576
20
2.1366
30
0.0
11
62.536
21
2.1295
31
0.0
0
LINE
100
AcDbEntity
62
7
8
HANDALSTONE_pc119
100
AcDbLine
10
62.536
20
2.1295
30
0.0
11
62.5132
21
2.1236
31
0.0
0
LINE
100
AcDbEntity
62
7
8
HANDALSTONE_pc119
100
AcDbLine
10
62.5132
20
2.1236
30
0.0
11
62.4892
21
2.1186
31
0.0
0
LINE
100
AcDbEntity
62
7
8
HANDALSTONE_pc119
100
AcDbLine
10
62.4892
20
2.1186
30
0.0
11
62.4641
21
2.1146
31
0.0
0
LINE
100
AcDbEntity
62
7
8
HANDALSTONE_pc119
100
AcDbLine
10
62.4641
20
2.1146
30
0.0
11
62.4377
21
2.1115
31
0.0
0
LINE
100
AcDbEntity
62
7
8
HANDALSTONE_pc119
100
AcDbLine
10
62.4377
20
2.1115
30
0.0
11
62.4102
21
2.1091
31
0.0
0
LINE
100
AcDbEntity
62
7
8
HANDALSTONE_pc119
100
AcDbLine
10
62.4102
20
2.1091
30
0.0
11
62.3814
21
2.1074
31
0.0
0
LINE
100
AcDbEntity
62
7
8
HANDALSTONE_pc119
100
AcDbLine
10
62.3814
20
2.1074
30
0.0
11
62.3202
21
2.1057
31
0.0
0
LINE
100
AcDbEntity
62
7
8
HANDALSTONE_pc119
100
AcDbLine
10
62.3202
20
2.1057
30
0.0
11
62.3202
21
1.7924
31
0.0
0
LINE
100
AcDbEntity
62
7
8
HANDALSTONE_pc119
100
AcDbLine
10
62.3202
20
1.7924
30
0.0
11
62.2801
21
1.7885
31
0.0
0
LINE
100
AcDbEntity
62
7
8
HANDALSTONE_pc119
100
AcDbLine
10
62.2801
20
1.7885
30
0.0
11
62.2407
21
1.783
31
0.0
0
LINE
100
AcDbEntity
62
7
8
HANDALSTONE_pc119
100
AcDbLine
10
62.2407
20
1.783
30
0.0
11
62.2018
21
1.7757
31
0.0
0
LINE
100
AcDbEntity
62
7
8
HANDALSTONE_pc119
100
AcDbLine
10
62.2018
20
1.7757
30
0.0
11
62.1637
21
1.7669
31
0.0
0
LINE
100
AcDbEntity
62
7
8
HANDALSTONE_pc119
100
AcDbLine
10
62.1637
20
1.7669
30
0.0
11
62.1263
21
1.7566
31
0.0
0
LINE
100
AcDbEntity
62
7
8
HANDALSTONE_pc119
100
AcDbLine
10
62.1263
20
1.7566
30
0.0
11
62.0896
21
1.7447
31
0.0
0
LINE
100
AcDbEntity
62
7
8
HANDALSTONE_pc119
100
AcDbLine
10
62.0896
20
1.7447
30
0.0
11
62.0538
21
1.7313
31
0.0
0
LINE
100
AcDbEntity
62
7
8
HANDALSTONE_pc119
100
AcDbLine
10
62.0538
20
1.7313
30
0.0
11
62.0189
21
1.7165
31
0.0
0
LINE
100
AcDbEntity
62
7
8
HANDALSTONE_pc119
100
AcDbLine
10
62.0189
20
1.7165
30
0.0
11
61.9848
21
1.7004
31
0.0
0
LINE
100
AcDbEntity
62
7
8
HANDALSTONE_pc119
100
AcDbLine
10
61.9848
20
1.7004
30
0.0
11
61.9517
21
1.6828
31
0.0
0
LINE
100
AcDbEntity
62
7
8
HANDALSTONE_pc119
100
AcDbLine
10
61.9517
20
1.6828
30
0.0
11
61.9197
21
1.664
31
0.0
0
LINE
100
AcDbEntity
62
7
8
HANDALSTONE_pc119
100
AcDbLine
10
61.9197
20
1.664
30
0.0
11
61.8886
21
1.6439
31
0.0
0
LINE
100
AcDbEntity
62
7
8
HANDALSTONE_pc119
100
AcDbLine
10
61.8886
20
1.6439
30
0.0
11
61.8586
21
1.6225
31
0.0
0
LINE
100
AcDbEntity
62
7
8
HANDALSTONE_pc119
100
AcDbLine
10
61.8586
20
1.6225
30
0.0
11
61.8298
21
1.5999
31
0.0
0
LINE
100
AcDbEntity
62
7
8
HANDALSTONE_pc119
100
AcDbLine
10
61.8298
20
1.5999
30
0.0
11
61.8021
21
1.5762
31
0.0
0
LINE
100
AcDbEntity
62
7
8
HANDALSTONE_pc119
100
AcDbLine
10
61.8021
20
1.5762
30
0.0
11
61.7757
21
1.5514
31
0.0
0
LINE
100
AcDbEntity
62
7
8
HANDALSTONE_pc119
100
AcDbLine
10
61.7757
20
1.5514
30
0.0
11
61.7505
21
1.5255
31
0.0
0
LINE
100
AcDbEntity
62
7
8
HANDALSTONE_pc119
100
AcDbLine
10
61.7505
20
1.5255
30
0.0
11
61.7266
21
1.4986
31
0.0
0
LINE
100
AcDbEntity
62
7
8
HANDALSTONE_pc119
100
AcDbLine
10
61.7266
20
1.4986
30
0.0
11
61.7041
21
1.4706
31
0.0
0
LINE
100
AcDbEntity
62
7
8
HANDALSTONE_pc119
100
AcDbLine
10
61.7041
20
1.4706
30
0.0
11
61.683
21
1.4417
31
0.0
0
LINE
100
AcDbEntity
62
7
8
HANDALSTONE_pc119
100
AcDbLine
10
61.683
20
1.4417
30
0.0
11
61.6633
21
1.4119
31
0.0
0
LINE
100
AcDbEntity
62
7
8
HANDALSTONE_pc119
100
AcDbLine
10
61.6633
20
1.4119
30
0.0
11
61.645
21
1.3813
31
0.0
0
LINE
100
AcDbEntity
62
7
8
HANDALSTONE_pc119
100
AcDbLine
10
61.645
20
1.3813
30
0.0
11
61.6283
21
1.3497
31
0.0
0
LINE
100
AcDbEntity
62
7
8
HANDALSTONE_pc119
100
AcDbLine
10
61.6283
20
1.3497
30
0.0
11
61.6132
21
1.3174
31
0.0
0
LINE
100
AcDbEntity
62
7
8
HANDALSTONE_pc119
100
AcDbLine
10
61.6132
20
1.3174
30
0.0
11
61.5997
21
1.2843
31
0.0
0
LINE
100
AcDbEntity
62
7
8
HANDALSTONE_pc119
100
AcDbLine
10
61.5997
20
1.2843
30
0.0
11
61.5879
21
1.2505
31
0.0
0
LINE
100
AcDbEntity
62
7
8
HANDALSTONE_pc119
100
AcDbLine
10
61.5879
20
1.2505
30
0.0
11
61.5777
21
1.2161
31
0.0
0
LINE
100
AcDbEntity
62
7
8
HANDALSTONE_pc119
100
AcDbLine
10
61.5777
20
1.2161
30
0.0
11
61.5693
21
1.181
31
0.0
0
LINE
100
AcDbEntity
62
7
8
HANDALSTONE_pc119
100
AcDbLine
10
61.5693
20
1.181
30
0.0
11
61.5627
21
1.1453
31
0.0
0
LINE
100
AcDbEntity
62
7
8
HANDALSTONE_pc119
100
AcDbLine
10
61.5627
20
1.1453
30
0.0
11
61.5579
21
1.109
31
0.0
0
LINE
100
AcDbEntity
62
7
8
HANDALSTONE_pc119
100
AcDbLine
10
61.5579
20
1.109
30
0.0
11
61.555
21
1.0722
31
0.0
0
LINE
100
AcDbEntity
62
7
8
HANDALSTONE_pc119
100
AcDbLine
10
61.555
20
1.0722
30
0.0
11
61.5541
21
1.0349
31
0.0
0
LINE
100
AcDbEntity
62
7
8
HANDALSTONE_pc119
100
AcDbLine
10
61.5541
20
1.0349
30
0.0
11
61.5551
21
0.9973
31
0.0
0
LINE
100
AcDbEntity
62
7
8
HANDALSTONE_pc119
100
AcDbLine
10
61.5551
20
0.9973
30
0.0
11
61.558
21
0.9601
31
0.0
0
LINE
100
AcDbEntity
62
7
8
HANDALSTONE_pc119
100
AcDbLine
10
61.558
20
0.9601
30
0.0
11
61.5629
21
0.9234
31
0.0
0
LINE
100
AcDbEntity
62
7
8
HANDALSTONE_pc119
100
AcDbLine
10
61.5629
20
0.9234
30
0.0
11
61.5697
21
0.8873
31
0.0
0
LINE
100
AcDbEntity
62
7
8
HANDALSTONE_pc119
100
AcDbLine
10
61.5697
20
0.8873
30
0.0
11
61.5783
21
0.8518
31
0.0
0
LINE
100
AcDbEntity
62
7
8
HANDALSTONE_pc119
100
AcDbLine
10
61.5783
20
0.8518
30
0.0
11
61.5886
21
0.817
31
0.0
0
LINE
100
AcDbEntity
62
7
8
HANDALSTONE_pc119
100
AcDbLine
10
61.5886
20
0.817
30
0.0
11
61.6007
21
0.7829
31
0.0
0
LINE
100
AcDbEntity
62
7
8
HANDALSTONE_pc119
100
AcDbLine
10
61.6007
20
0.7829
30
0.0
11
61.6145
21
0.7495
31
0.0
0
LINE
100
AcDbEntity
62
7
8
HANDALSTONE_pc119
100
AcDbLine
10
61.6145
20
0.7495
30
0.0
11
61.63
21
0.7169
31
0.0
0
LINE
100
AcDbEntity
62
7
8
HANDALSTONE_pc119
100
AcDbLine
10
61.63
20
0.7169
30
0.0
11
61.647
21
0.6851
31
0.0
0
LINE
100
AcDbEntity
62
7
8
HANDALSTONE_pc119
100
AcDbLine
10
61.647
20
0.6851
30
0.0
11
61.6656
21
0.6542
31
0.0
0
LINE
100
AcDbEntity
62
7
8
HANDALSTONE_pc119
100
AcDbLine
10
61.6656
20
0.6542
30
0.0
11
61.6857
21
0.6242
31
0.0
0
LINE
100
AcDbEntity
62
7
8
HANDALSTONE_pc119
100
AcDbLine
10
61.6857
20
0.6242
30
0.0
11
61.7073
21
0.5951
31
0.0
0
LINE
100
AcDbEntity
62
7
8
HANDALSTONE_pc119
100
AcDbLine
10
61.7073
20
0.5951
30
0.0
11
61.7303
21
0.567
31
0.0
0
LINE
100
AcDbEntity
62
7
8
HANDALSTONE_pc119
100
AcDbLine
10
61.7303
20
0.567
30
0.0
11
61.7547
21
0.5399
31
0.0
0
LINE
100
AcDbEntity
62
7
8
HANDALSTONE_pc119
100
AcDbLine
10
61.7547
20
0.5399
30
0.0
11
61.7804
21
0.5139
31
0.0
0
LINE
100
AcDbEntity
62
7
8
HANDALSTONE_pc119
100
AcDbLine
10
61.7804
20
0.5139
30
0.0
11
61.8073
21
0.489
31
0.0
0
LINE
100
AcDbEntity
62
7
8
HANDALSTONE_pc119
100
AcDbLine
10
61.8073
20
0.489
30
0.0
11
61.8355
21
0.4652
31
0.0
0
LINE
100
AcDbEntity
62
7
8
HANDALSTONE_pc119
100
AcDbLine
10
61.8355
20
0.4652
30
0.0
11
61.8649
21
0.4426
31
0.0
0
LINE
100
AcDbEntity
62
7
8
HANDALSTONE_pc119
100
AcDbLine
10
61.8649
20
0.4426
30
0.0
11
61.8955
21
0.4213
31
0.0
0
LINE
100
AcDbEntity
62
7
8
HANDALSTONE_pc119
100
AcDbLine
10
61.8955
20
0.4213
30
0.0
11
61.9271
21
0.4012
31
0.0
0
LINE
100
AcDbEntity
62
7
8
HANDALSTONE_pc119
100
AcDbLine
10
61.9271
20
0.4012
30
0.0
11
61.9598
21
0.3825
31
0.0
0
LINE
100
AcDbEntity
62
7
8
HANDALSTONE_pc119
100
AcDbLine
10
61.9598
20
0.3825
30
0.0
11
61.9935
21
0.3651
31
0.0
0
LINE
100
AcDbEntity
62
7
8
HANDALSTONE_pc119
100
AcDbLine
10
61.9935
20
0.3651
30
0.0
11
62.0282
21
0.3491
31
0.0
0
LINE
100
AcDbEntity
62
7
8
HANDALSTONE_pc119
100
AcDbLine
10
62.0282
20
0.3491
30
0.0
11
62.0637
21
0.3345
31
0.0
0
LINE
100
AcDbEntity
62
7
8
HANDALSTONE_pc119
100
AcDbLine
10
62.0637
20
0.3345
30
0.0
11
62.1002
21
0.3214
31
0.0
0
LINE
100
AcDbEntity
62
7
8
HANDALSTONE_pc119
100
AcDbLine
10
62.1002
20
0.3214
30
0.0
11
62.1375
21
0.3098
31
0.0
0
LINE
100
AcDbEntity
62
7
8
HANDALSTONE_pc119
100
AcDbLine
10
62.1375
20
0.3098
30
0.0
11
62.1755
21
0.2997
31
0.0
0
LINE
100
AcDbEntity
62
7
8
HANDALSTONE_pc119
100
AcDbLine
10
62.1755
20
0.2997
30
0.0
11
62.2143
21
0.2913
31
0.0
0
LINE
100
AcDbEntity
62
7
8
HANDALSTONE_pc119
100
AcDbLine
10
62.2143
20
0.2913
30
0.0
11
62.2538
21
0.2845
31
0.0
0
LINE
100
AcDbEntity
62
7
8
HANDALSTONE_pc119
100
AcDbLine
10
62.2538
20
0.2845
30
0.0
11
62.2939
21
0.2794
31
0.0
0
LINE
100
AcDbEntity
62
7
8
HANDALSTONE_pc119
100
AcDbLine
10
62.2939
20
0.2794
30
0.0
11
62.3346
21
0.276
31
0.0
0
LINE
100
AcDbEntity
62
7
8
HANDALSTONE_pc119
100
AcDbLine
10
62.3346
20
0.276
30
0.0
11
62.3346
21
0
31
0.0
0
LINE
100
AcDbEntity
62
7
8
HANDALSTONE_pc119
100
AcDbLine
10
62.3346
20
0
30
0.0
11
63.8346
21
0
31
0.0
0
TEXT
100
AcDbEntity
8
HANDALSTONE_pc119
100
AcDbText
10
58.0
20
-3
30
0
1
PC119 Right
40
2
0
TEXT
100
AcDbEntity
8
HANDALSTONE_pc119
100
AcDbText
10
58.0
20
-5.25
30
0
1
(53" x 24.5")
40
1.5
0
ENDSEC
0
SECTION
2
OBJECTS
0
ENDSEC
0
EOF